» » »

Yourcodenameis Milo, All Roads To Fault Bass tabs (ver.1)

Artists:  A B C D E F G H I J K L M N O P Q R S T U V W X Y Z # 

All Roads To Fault Bass tabs (ver.1)

Yourcodenameis Milo Tabs
Rating:
0/5 (0 votes)
Hard to play? Try these video lessons and learn fast.
                -------------------------------------------------------------------------------
			     All Roads to Fault - YOURCODENAMEIS:MILO
-------------------------------------------------------------------------------


Tuning: Drop D

Verse (0:00) x2
G|-------------------------------------------------|
D|-------------------------------------------------|
A|-------------------------------------------------|
D|-12-12-12-12-12--12-12-12--12-12-12-0-10-0-10/12-|

G|-----------------------------------------------|
D|-----------------------------------------------|
A|-----------------------------------------------|
D|-12-12-12-12-12--12-12-12--12-12-12-0-10-0-12x-|

G|--------------------------------|
D|-7--7-7-------------------------|
A|---------7--7-7--5--5-5--4--4-4-| -I'm not too sure about that 7th on D
D|--------------------------------|

Break

Chorus (0:39) "FAAAAAAAAAAAAULT!"
G|----------------------------------|
D|----------------------------------|
A|-5-(x16)-9-(x16)-10-(x16)-4-(x16)-|
D|----------------------------------|

G|-----------------------------------|
D|-----------------------------------|
A|-5-(x16)-9-(x16)-10-(x16)-12-(x16)-| x2
D|-----------------------------------|

Break "but here is the one that called out your name"

G|----------------------------------|
D|----------------------------------|
A|-5-(x16)-9-(x16)-10-(x16)-4-(x16)-|
D|----------------------------------|

Bridge (1:30)
G|--------------------------------|
D|-----------------7--7-7---------|
A|-5--5-5--7--7-7----------4--4-4-|
D|--------------------------------|

Break

Riff -getting slower (1:55)
G|--------------------------|
D|--------------------------|
A|--------------------------| x8
D|-0--8-0-0--8-0-0--8-0-0-8-|

Riff - getting faster (2:22)
G|----------|
D|----------|
A|----------|
D|-0--8-0-0-|

G|-------|
D|-------|
A|-------| x21
D|-8-0-0-|

G|----------|
D|----------|
A|----------|
D|-12-12-12-|

| /  slide up
| \  slide down
| h  hammer-on
| p  pull-off
| ~  vibrato
| +  harmonic
| x  Mute note
===============================================================================
            

comments powered by Disqus
↑ Back to top | Yourcodenameis Milo Bass for All Roads To Fault. Lyrics for acoustic guitar and electric guitar. Tablatures and chords are parodies/interpretations of the original songs. You may use it for private study, scholarship, research or language learning purposes only