>
 >
Houki Boshi 1

Houki Boshi 1 Guitar Tabs

Younha - Houki Boshi 1 chords, tabs, tablatures, lyrics

Guitar lessons | Add/correct | Request | Top 50 tabs Artists:  A B C D E F G H I J K L M N O P Q R S T U V W X Y Z 0-9

Houki Boshi 1 Guitar Tabs – Younha

CD, Sheet music, Poster

Do you like Houki Boshi 1? Share with your friends now
ChordsTabsTabs v2Tabs v3Ukulele
Houki Boshi - Younha (Bleach outro)
Tuning standard - EADGBe

PM Palm Mute
~ Hold note
> Slide
/ During palm Mute hit clean

Intro

e|---------------|
B|---------------|
G|---------------|
D|-4~---5-----7~-| x2
A|----7---4>5----|
E|---------------|

Verse

PM ........ ........ ........ ........
e|---------------------------------------|
B|---------------------------------------|
G|-77777777------------------------------|
D|-77777777-77777777-99999999-55555555---|X2
A|-55555555-77777777-99999999-55555555---|
E|----------55555555-77777777-33333333---|

Verse

PM ../ ../  ../ ../  ../ ../  ../ ../
e|---------------------------------------|
B|---------------------------------------|
G|-777-777-------------------------------|
D|-777-777--777-777--999-999--555-555----|
A|-555-555--777-777--999-999--555-555----|
E|----------555-555--777-777--333-333----|


PM ../ ../  ../ ../  ../ ../  ......./
e|---------------------------------------|
B|---------------------------------------|
G|-777-777-------------------------------|
D|-777-777--777-777--999-999--55555555~--|
A|-555-555--777-777--999-999--55555555~--|
E|----------555-555--777-777--33333333~--|


Chorus-A

e|-----------------------------------------|
B|-----------------------------------------|
G|-77777777--------------------------------|
D|-77777777--77777777--99999999--5555-7777-|
A|-55555555--77777777--99999999--5555-7777-|
E|-----------55555555--77777777--3333-5555-|

Chorus-B

e|-----------------------------------------|
B|-----------------------------------------|
G|-77777777--------------------------------|
D|-77777777--77777777--99999999--55555555--|
A|-55555555--77777777--99999999--55555555--|
E|-----------55555555--77777777--33333333--|

 Play chorus A then B, then A then B


Verse

PM ........ ........ ........ ........
e|---------------------------------------|
B|---------------------------------------|
G|-77777777------------------------------|
D|-77777777-77777777-99999999-55555555---|X4
A|-55555555-77777777-99999999-55555555---|
E|----------55555555-77777777-33333333---|


Chorus-A

e|-----------------------------------------|
B|-----------------------------------------|
G|-77777777--------------------------------|
D|-77777777--77777777--99999999--5555-7777-|
A|-55555555--77777777--99999999--5555-7777-|
E|-----------55555555--77777777--3333-5555-|

Chorus - B

e|-----------------------------------------|
B|-----------------------------------------|
G|-77777777--------------------------------|
D|-77777777--77777777--99999999--55555555--|
A|-55555555--77777777--99999999--55555555--|
E|-----------55555555--77777777--33333333--|

 Play chorus A then B, then A then B


Bridge - Middle 8

e|------------------|    |------------55555555-|
B|------------77----|    |---------------------|
G|-777-666-77----6~-|    |-777-666-77----------|
D|------------------| X3 |---------------------|
A|------------------|    |---------------------|
E|------------------|    |---------------------|

Piano Break

Chorus-A

e|-----------------------------------------|
B|-----------------------------------------|
G|-77777777--------------------------------|
D|-77777777--77777777--99999999--5555-7777-|
A|-55555555--77777777--99999999--5555-7777-|
E|-----------55555555--77777777--3333-5555-|

Chorus - B

e|-----------------------------------------|
B|-----------------------------------------|
G|-77777777--------------------------------|
D|-77777777--77777777--99999999--55555555--|
A|-55555555--77777777--99999999--55555555--|
E|-----------55555555--77777777--33333333--|

 Play chorus A then B, then A then B

Chorus- C

e|-----------------------------|
B|-----------------------------|
G|-7~--------------------------|
D|-7~-7777-99999999--5555-7777-|
A|-5~-7777-99999999--5555-7777-|
E|----5555-77777777--3333-5555-|

Chorus-A

e|-------------------------------------|
B|-------------------------------------|
G|-77777777----------------------------|
D|-77777777--77777777--99999999--55-77-|
A|-55555555--77777777--99999999--55-77-|
E|-----------55555555--77777777--33-55-|

Outro

e|----------------------|
B|----------------------|
G|-77-------------------|
D|-77--77--99-99--55-77-|
A|-55--77--99-99--55-77-|
E|-----55--77-77--33-55-|

e|---------------|
B|---------------|
G|---------------|
D|-4~---5-----7~-|
A|----7---4>5----|
E|---------------|

Listen to song for structure and timing.

Intro X2
Verse 1 x2
Verse 2 x2
Chorus X4
Verse 1 X4
Chorus X4
Middle 8/Bridge
Break
Chorus
Outro





Comments


Popular Younha tabs & chords
Houkiboushi Chords
My Song And Chords
Password 486 Chords
Password 486 1 Chords
Yubikiri Chords
Houki Boshi Tabs
Houki Boshi Ukulele
My Song And Ukulele
Password 486 Ukulele
Yubikiri Ukulele


Song lyrics



↑ Back to top | Tablatures and chords are parodies/interpretations of the original songs. You may use it for private study, scholarship, research or language learning purposes only
© 2014 AZChords.com Contact us | Privacy policy | DMCA | Add/correct tabs | Request tabs | Top 50 tabs