» » »

Young The Giant, My Body Bass tabs (ver.2)

Artists:  A B C D E F G H I J K L M N O P Q R S T U V W X Y Z # 

My Body Bass tabs (ver.2)

Young The Giant Tabs
 Rating:
4/5 (4 votes)
My Body lessons Tabs too difficult? Try these video lessons and learn fast
                



All tabs by Pedro Zappa
-----------------------------------------------------------------------------
-----------------------------------------------------------------------------


2. My Body


Intro

G||--------------------||
D||--------------------||
A||--------------------||
E||------------------0-||
    i    i    i    i
G||----------------------------||  x6
D||----------------------------||
A||----------------------------||
E||-1-1-1--1-1-1--1-1-1--1-1-0-||
    i      i      i      i 
G||----------------------------|----------------------------||
D||----------------------------|----------------------------||
A||----------------------------|----------------------------||
E||-1-1-1--1-1-0--1-1-1--1-1-0-|-1-1-1--1-1-0--1-1-1--1-1-0-||
    i      i      i      i       i      i      i      i
G||----------------------------||  x3
D||----------------------------||
A||----------------------------||
E||-1-1-1--1-1-1--1-1-1--1-1-0-||
    i      i      i      i 
G||----------------------------||
D||----------------------------||
A||----------------------------||
E||-1-1-1--1-1-0--1-1-1--1-1-0-||
    i      i      i      i
G||----------------------------||  x3
D||----------------------------||
A||-1-1-1--1-1-1--1-1-1--1-1-0-||
E||----------------------------||
    i      i      i      i 
G||----------------------------||
D||--------3-------------------||
A||-1-1-1----1-0--1-1-1--1-----||
E||------------------------0-0-||
    i      i      i      i

Verse 1

G||----------------------------||  x3
D||----------------------------||
A||----------------------------||
E||-1-1-1--1-1-1--1-1-1--1-1-0-||
    i      i      i      i 
G||----------------------------||
D||----------------------------||
A||----------------------------||
E||-1-1-1--1-1-0--1-1-1--1-1-0-||
    i      i      i      i
G||----------------------------||  x3
D||----------------------------||
A||-1-1-1--1-1-1--1-1-1--1-1-0-||
E||----------------------------||
    i      i      i      i 
G||----------------------------||
D||--------3-------------------||
A||-1-1-1----1-0--1-1-1--1-----||
E||------------------------0-0-||
    i      i      i      i

G||----------------------------||  x3
D||----------------------------||
A||----------------------------||
E||-1-1-1--1-1-1--1-1-1--1-1-0-||
    i      i      i      i 
G||----------------------------||
D||----------------------------||
A||----------------------------||
E||-1-1-1--1-1-0--1-1-1--1-1-0-||
    i      i      i      i
G||----------------------------||  x3
D||----------------------------||
A||-1-1-1--1-1-1--1-1-1--1-1-0-||
E||----------------------------||
    i      i      i      i 
G||----------------------------||
D||--------3-------------------||
A||-1-1-1----1-0--1-1-1--1-----||
E||------------------------0-0-||
    i      i      i      i

Chorus 1

G||----------------------------|----------------------------||  x2
D||----------------------------|----------------------------||
A||----------------------------|-8-8-8--8-8-8--8-8-8--8-8-8-||
E||-1---1--1---1--1---1--1---1-|----------------------------||
    i      i      i      i       i      i      i      i
G||----------------------------|----------------------------||  x2
D||----------------------------|-8-8-8--8-8-8--8-8-8--8-8-8-||
A||-1---1--1---1--1---1--1---1-|----------------------------||
E||----------------------------|----------------------------||
    i      i      i      i       i      i      i      i
G||----------------------------|----------------------------||  x2
D||----------------------------|----------------------------||
A||----------------------------|-8-8-8--8-8-8--8-8-8--8-8-8-||
E||-1---1--1---1--1---1--1---1-|----------------------------||
    i      i      i      i       i      i      i      i
G||----------------------------|----------------------------||  x2
D||----------------------------|-8-8-8--8-8-8--8-8-8--8-8-8-||
A||-1---1--1---1--1---1--1---1-|----------------------------||
E||----------------------------|----------------------------||
    i      i      i      i       i      i      i      i

Verse 2

G||----------------------------||  x4
D||----------------------------||
A||----------------------------||
E||-1-1-1--1-1-1--1-1-1--1-1-0-||
    i      i      i      i 
G||----------------------------||  x3
D||----------------------------||
A||-1-1-1--1-1-1--1-1-1--1-1-0-||
E||----------------------------||
    i      i      i      i 
G||----------------------------||
D||--------3-------------------||
A||-1-1-1----1-0--1-1-1--1-----||
E||------------------------0-0-||
    i      i      i      i

G||----------------------------||  x4
D||----------------------------||
A||----------------------------||
E||-1-1-1--1-1-1--1-1-1--1-1-0-||
    i      i      i      i 
G||----------------------------||  x3
D||----------------------------||
A||-1-1-1--1-1-1--1-1-1--1-1-0-||
E||----------------------------||
    i      i      i      i 
G||----------------------------||
D||--------3-------------------||
A||-1-1-1----1-0--1-1-1--1-----||
E||------------------------0-0-||
    i      i      i      i

Chorus 2

G||----------------------------|----------------------------||  x2
D||----------------------------|----------------------------||
A||----------------------------|-8-8-8--8-8-8--8-8-8--8-8-8-||
E||-1---1--1---1--1---1--1---1-|----------------------------||
    i      i      i      i       i      i      i      i
G||----------------------------|----------------------------||  x2
D||----------------------------|-8-8-8--8-8-8--8-8-8--8-8-8-||
A||-1---1--1---1--1---1--1---1-|----------------------------||
E||----------------------------|----------------------------||
    i      i      i      i       i      i      i      i
G||----------------------------|----------------------------||  x2
D||----------------------------|----------------------------||
A||----------------------------|-8-8-8--8-8-8--8-8-8--8-8-8-||
E||-1---1--1---1--1---1--1---1-|----------------------------||
    i      i      i      i       i      i      i      i
G||----------------------------|----------------------------||  x2
D||----------------------------|-8-8-8--8-8-8--8-8-8--8-8-8-||
A||-1---1--1---1--1---1--1---1-|----------------------------||
E||----------------------------|----------------------------||
    i      i      i      i       i      i      i      i

Bridge

G||----------------------------|----------------------------|
D||----------------------------|----------------------------|
A||---------------8-8-8--8-8-8-|---------------8-8-8--8-8-8-|
E||-1------1/------------------|-1------1/------------------|
    i      i      i      i       i      i      i      i
G||----------------------------|----------------------------|
D||----------------------------|----------------------------|
A||---------------8-8-8--8-8-8-|------------10.10-----8-----|
E||-1------1/------------------|-1------1/------------------|
    i      i      i      i       i      i      i      i
G||----------------------------|----------------------------|
D||----------------------------|----------------------------|
A||-6------6------x-x-x--x-x-x-|-6------6------x-x-x--x-x-x-|
E||----------------------------|----------------------------|
    i      i      i      i       i      i      i      i
G||----------------------------|---------------------------------------||
D||----------------------------|---------------------------------------||
A||-6------6------x-x-x--x-x-x-|-13-13-13---13-13-13--13-13-13--13-----||
E||----------------------------|-----------------------------------0-0-||
    i      i      i      i       i          i         i         i

G||----------------------------|----------------------------||  x2
D||----------------------------|----------------------------||
A||---------------8-8-8--8-8-8-|---------------8-8-8--8-8-8-||
E||-1------1/------------------|-1------1/------------------||
    i      i      i      i       i      i      i      i
G||----------------------------|----------------------------||  x2
D||---------------8-8-8--8-8-8-|---------------8-8-8--8-8-8-||
A||-1------1/------------------|-1------1/------------------||
E||----------------------------|----------------------------||
    i      i      i      i       i      i      i      i

G||----------------------------||  x4
D||----------------------------||
A||----------------------------||
E||-1-1-1--1-1-1--1-1-1--1-1-0-||
    i      i      i      i 
G||----------------------------||  x3
D||----------------------------||
A||-1-1-1--1-1-1--1-1-1--1-1-0-||
E||----------------------------||
    i      i      i      i 
G||----------------------------||
D||--------3-------------------||
A||-1-1-1----1-0--1-1-1--1-1---||
E||--------------------------0-||
    i      i      i      i

G||----------------------------||  x4
D||----------------------------||
A||----------------------------||
E||-1-1-1--1-1-1--1-1-1--1-1-0-||
    i      i      i      i 
G||----------------------------||  x3
D||----------------------------||
A||-1-1-1--1-1-1--1-1-1--1-1-0-||
E||----------------------------||
    i      i      i      i 
G||----------------------------||
D||--------3-------------------||
A||-1-1-1----1-0--1-1-1--1-1-1-||
E||----------------------------||
    i      i      i      i

Chorus 3

G||----------------------------|----------------------------||  x2
D||----------------------------|----------------------------||
A||----------------------------|-8-8-8--8-8-8--8-8-8--8-8-8-||
E||-1---1--1---1--1---1--1---1-|----------------------------||
    i      i      i      i       i      i      i      i
G||----------------------------|----------------------------||  x2
D||----------------------------|-8-8-8--8-8-8--8-8-8--8-8-8-||
A||-1---1--1---1--1---1--1---1-|----------------------------||
E||----------------------------|----------------------------||
    i      i      i      i       i      i      i      i
G||----------------------------|----------------------------||  x2
D||----------------------------|----------------------------||
A||----------------------------|-8-8-8--8-8-8--8-8-8--8-8-8-||
E||-1---1--1---1--1---1--1---1-|----------------------------||
    i      i      i      i       i      i      i      i
G||----------------------------|----------------------------||  x2
D||----------------------------|-8-8-8--8-8-8--8-8-8--8-8-8-||
A||-1---1--1---1--1---1--1---1-|----------------------------||
E||----------------------------|----------------------------||
    i      i      i      i       i      i      i      i
G||----------------------------|----------------------------|
D||----------------------------|----------------------------|
A||---------------8-8-8--8-8-8-|---------------8-8-8--8-8-8-|
E||-1------1-------------------|-1------1-------------------|
    i      i      i      i       i      i      i      i
G||----------------------------|----------------------------|
D||----------------------------|----------------------------|
A||---------------8-8-8--8-8-8-|----------------------------|
E||-1------1-------------------|-1--------------------------|
    i      i      i      i       i      i      i      i


-----------------------------------------------------------------------------
-----------------------------------------------------------------------------
            
Submit corrections

comments powered by Disqus
↑ Back to top | Young The Giant Bass for My Body. Lyrics for acoustic guitar and electric guitar. Tablatures and chords are parodies/interpretations of the original songs. You may use it for private study, scholarship, research or language learning purposes only