» » »

Young The Giant, Guns Out Bass tabs (ver.1)

Artists:  A B C D E F G H I J K L M N O P Q R S T U V W X Y Z # 

Guns Out Bass tabs (ver.1)

Young The Giant Tabs
Rating:
5/5 (2 votes)
Hard to play? Try these video lessons and learn fast.
                -------------------------------------------------------------------------------
			     Guns Out – Young The Giant
-------------------------------------------------------------------------------


This is very cool song by Young The Giant,
an upcoming band which is gonna get big really
soon because they make awesome music!

Im 100% sure about the intro/verse and 99% sure
about the chorus, Im doubtful of the 2s in the chorus
and bridge so you might wanna check that yourself.

Rhythm is what you have to figure out yourself but
it’s not that hard and you Bass players are awesome at rhythm :P

Enjoy!


Tuning: Standard

Intro/Verse

    (starts at 0:10)

G|-11-11---9-9---11-11---9-9—--11-9---11/13---13-13---16-16---13-13---16-16--|
D|---------------------------------------------------------------------------|
A|---------------------------------------------------------------------------|
E|---------------------------------------------------------------------------|

G|-13-13-16-16----------|
D|----------------------|        Play 5 times until 0:55 (ish)
A|----------------------|
E|----------------------|


      Pre-Chorus

G|------------------------------------------------------------------|
D|------------------------------------------------14-14-------------|Play 2 times
A|------/14---12---\5/7---------------------------------12--14------|
E|------------------------------------------------------------------|


    Chorus (definetly not 100% correct!!!)

G|---------------------------------------------------------------------------|
D|---------------------------------------------------------------------------|
A|--------------------------------7-7-7-7-7-7-7-7-7-7-7-7-7-7-7-5-5-5-5-5-5-5|
E|--5-5-5-5-5-5-5-5-5-5-5-5-5-5-5--------------------------------------------|

G|------------------------------------------------------------------------------|
D|-----------------------------------------------------------------------9-9-9--|
A|-5-5-5-5-5-5-5-5-5-7-7-7-7-7-7-7-7-7-7-7-7-7-7-7-2-2-2-2-2-2-2-2-2-2-2--------|
E|------------------------------------------------------------------------------|

G|-----------------------------------------------------------------------/-------|
D|-7-7-7-----------------------------------------------------------------|14-14--|
A|-------7-7-5-5-5-5-5-5-5-5-5-5-5-5-5-5-5-7-7-7-7-7-7-7-7-7-7-7-7-7-7-7-|-------|
E|-----------------------------------------------------------------------\-------|

G|-------------\---|
D|--------14-14-|--|
A|--------------|--|
E|-------------/---|


Repeat play Intro/Verse 4 times

Then Pre-Chorus and Chorus (Without the 14s at the end!!!!)


    Bridge (you can play them like this in twos or play them all the way through)
G|---------------------------------------------------------------------------|
D|---------------------------------------------------------------------------|
A|----7-7---7-7---5-5---5-5---2-2---2-2---7-7—--7-7---5-5---5-5---2-2---2-2--|
E|---------------------------------------------------------------------------|


Now play Chorus once more again without the 14s


    Outro (It’s similar to the Bridge but shorter

G|-----------------------------------------------------------------------------|
D|-----------------------------------------------------------------------------|
A|--7-7---7-7---5-5---5-5---2-2---2-2---7--------------------------------------|
E|-----------------------------------------------------------------------------|


| /  slide up
| \  slide down
| h  hammer-on
| p  pull-off
| ~  vibrato
| +  harmonic
| x  Mute note
===============================================================================
            

comments powered by Disqus
↑ Back to top | Young The Giant Bass for Guns Out. Lyrics for acoustic guitar and electric guitar. Tablatures and chords are parodies/interpretations of the original songs. You may use it for private study, scholarship, research or language learning purposes only