» » »

Cough Syrup Tabs (ver.8)

Artists:  A B C D E F G H I J K L M N O P Q R S T U V W X Y Z # 

Cough Syrup Tabs (ver.8)

Young The Giant
Rating:
4/5 (3 votes)

Hard to play? Try these video lessons and learn fast.
                (Intro)
Alright guys this is my first tab. Pretty easy intro.
Friends of mine figured it out by ear about a year ago I just haven't gotten around to 
tabbing it but, I did now.
Leave comments or questions and I'll reply. Thanks!

Also, you can capo it if you want but, I think it sounds just fine on standard tuning, 
no capo.


e|----------------------------------|
B|--3-----2--2---0---0--------------|
G|-2---------------------2--2--4--6-|
D|0-----0--0---0---0---0------------|
A|----------------------------------|
E|----------------------------------|

e|----------------------------------|
B|----------------------------------|
G|--6----4---4---2---2--------------|
D|-7---------------------5--4--5----|
A|0----0---0---0---0-------0--0-----|
E|----------------------------------|

e|----------------------------------|
B|----------------------5---5-------|
G|--4---6---6---7---7---------------|
D|-5--------------------------------|
A|----------------------------------|
E|3---3---3---3---3---3---3---------|

e|----------------------------------|
B|----------------------------------|
G|--6---7---7---9-------------------|
D|-7--------------------------------|
A|0---0---0---0---------------------|
E|----------------------------------|
            
Hard to play? Try these video lessons and learn fast. | Correct




comments powered by Disqus
↑ Back to top | Tablatures and chords are parodies/interpretations of the original songs. You may use it for private study, scholarship, research or language learning purposes only