» » »

Young The Giant, Cough Syrup Tabs (ver.1)

Artists:  A B C D E F G H I J K L M N O P Q R S T U V W X Y Z # 

Cough Syrup Tabs (ver.1)

Young The Giant Tabs
 Rating:
4/5 (10 votes)
Cough Syrup lessons Tabs too difficult? Try these video lessons and learn fast
                (Intro)


I really enjoy playing this song. THIS IS AN EASIER VERSION but its not accurate. 
Feel free to comment on any small mistakes. Thanks!!!!! Smell you Later=D  


E|-------------------------------------------|
B|-------------------------------------------|
G|---------7---6---6---4---4-----------4h6---|
D|-------4--------------------7------4-------|
A|-----5-----5---5---5---5---------5---------|
E|-------------------------------------------|


E|------------------------------------------|
B|------------------------------------------|
G|---------6----4---4-----------------------|
D|----------------------7---7--5---4--5-----|
A|-------4----------------------------------|
E|-----5------5---5---5---5------5---5------|


E|------------------------------------------|
B|-----------------------------5---5--------|
G|---------4---6---6---7---7----------------|
D|-------5----------------------------------|
A|------------------------------------------|
E|-----3-----3---3---3---3---3---3----------|


E|------------------------------------------|
B|---------------------5--------------------|
G|---------6---7---7------------------------|
D|------------------------------------------|
A|-------4----------------------------------|
E|-----5-----5---5---5----------------------|
            
Submit corrections

comments powered by Disqus
↑ Back to top | Young The Giant Tabs for Cough Syrup. Lyrics for acoustic guitar and electric guitar. Tablatures and chords are parodies/interpretations of the original songs. You may use it for private study, scholarship, research or language learning purposes only