» » »

Young The Giant, Cough Syrup Bass tabs (ver.2)

Artists:  A B C D E F G H I J K L M N O P Q R S T U V W X Y Z # 

Cough Syrup Bass tabs (ver.2)

Young The Giant Tabs
 Rating:
4.2/5 (5 votes)
Cough Syrup lessons Tabs too difficult? Try these video lessons and learn fast
                I thought I posted these tabs a while ago for some reason but I guess not.
Pretty easy song overall, standard tuning.

Check out my bass cover of this song!


Check out my channel for more covers!




Intro

No Bass

Verse 1

G|--------------------------------------------------------------------|
D|---------------------------------7-7-7-7-7-7-7-7-7-7-7-7-7-7-6-6----|
A|-5-5-5-5-5-5-5-5-5-5-5-5-5-5-5-5------------------------------------|
E|--------------------------------------------------------------------|

G|--------------------------------------------------------------------|
D|-5-5-5-5-5-5-5-5-5-5-5-5-5-5-5-5------------------------------------|
A|---------------------------------7-7-7-7-7-7-7-7--------------------|
E|-------------------------------------------------5-5-5-5-5-5-5-5----|

G|--------------------------------------------------------------------|
D|---------------------------------7-7-7-7-7-7-7-7-7-7-7-7-7-7-6-6----|
A|-5-5-5-5-5-5-5-5-5-5-5-5-5-5-5-5------------------------------------|
E|--------------------------------------------------------------------|

G|--------------------------------------------------------------------|
D|-5-5-5-5-5-5-5-5-5-5-5-5-5-5-5-5------------------------------------|
A|---------------------------------7-7-7-7-7-7-7-7--------------------|
E|-------------------------------------------------5-5-5-5-5-5-5-5----|

Chorus 1

G|-------------------------------------------------------------------------|
D|-------------------------------------------------------------------------|
A|-------------------------------------------------------------------------|
E|-7-7-7-7-7-7-7-7-7-7-7-7-7-7-7-7-5-5-5-5-5-5-5-5-5-5-5-5-5-5-4-4---------|

G|-------------------------------------------------------------------------|
D|-------------------------------------------------------------------------|
A|-------------------------------------------------4-4-4-4-5-5-5-5---------|
E|-3-3-3-3-3-3-3-3-7-7-7-7-7-7-7-7-5-5-5-5-5-5-5-5-------------------------|

G|-------------------------------------------------------------------------|
D|-------------------------------------------------------------------------|
A|-10-10-10-10-10-10-10-10-9-9-9-9-9-9-9-9-4-4-4-4-4-4-4-4-5-5-5-5-7-7-7-7-|
E|-------------------------------------------------------------------------|

After-Chorus

G|--------------------------------------------------------------------|
D|---------------------------------7-7-7-7-7-7-7-7-7-7-7-7-7-7-6-6----|
A|-5-5-5-5-5-5-5-5-5-5-5-5-5-5-5-5------------------------------------|
E|--------------------------------------------------------------------|

G|--------------------------------------------------------------------|
D|-5-5-5-5-5-5-5-5-5-5-5-5-5-5-5-5------------------------------------|
A|---------------------------------7-7-7-7-7-7-7-7--------------------|
E|-------------------------------------------------5-5-5-5-5-5-5-5----|

Verse 2

Same as Verse 1

Chorus 2

G|-------------------------------------------------------------------------------------|
D|-------------------------------------------------------------------------------------|
A|-------------------------------------------------------------------------------------|
E|-7-7-7-7-7-7-7-7-7-7-7-7-7-7-7-7-5-5-5-5-5-5-5-5-5-5-5-5-5-5-4-4---------------------|

G|-------------------------------------------------------------------------------------|
D|-------------------------------------------------------------------------------------|
A|---------------------------------12-12-12-12-12-12-12-12-12-12-12-12-12-12-12-12-----|
E|-3-3-3-3-3-3-3-3-7-7-7-7-7-7-7-7-----------------------------------------------------|

G|-------------------------------------------------------------------------------------|
D|-------------------------------------------------------------------------------------|
A|-------------------------------------------------------------------------------------|
E|-7-7-7-7-7-7-7-7-7-7-7-7-7-7-7-7-5-5-5-5-5-5-5-5-5-5-5-5-5-5-4-4---------------------|

G|-------------------------------------------------------------------------------------|
D|-------------------------------------------------------------------------------------|
A|---------------------------------12-12-12-12-12-12-12-12-12-12-12-12-12-12-12-12-5---|
E|-3-3-3-3-3-3-3-3-7-7-7-7-7-7-7-7-----------------------------------------------------|

Bridge

Bass comes in at 2:36

G|--------------------------------------------------------------------|
D|--------------------------------------------------------------------|
A|-5-5-5-5-5-5-5-5-5-5-5-5-5-5-5-5------------------------------------|
E|---------------------------------5-5-5-5-5-5-5-5-5-5-5-5-5-5-5-5----|

G|--------------------------------------------------------------------|
D|--------------------------------------------------------------------|
A|--------------------------------------------------------------------|
E|-3-3-3-3-3-3-3-3-3-3-3-3-3-3-3-3-5-5-5-5-5-5-5-5-5-5-5-5-5-5-5-5----|

Repeat both lines 3 times

Chorus 3

G|-------------------------------------------------------------------------------------|
D|-------------------------------------------------------------------------------------|
A|-------------------------------------------------------------------------------------|
E|-7-----------------------------------------------------------------------------------|

G|-------------------------------------------------------------------------------------|
D|-------------------------------------------------------------------------------------|
A|---------------------------------12-12-12-12-12-12-12-12-12-12-12-12-12-12-12-12-----|
E|-3-3-3-3-3-3-3-3-7-7-7-7-7-7-7-7-----------------------------------------------------|

G|-------------------------------------------------------------------------------------|
D|-------------------------------------------------------------------------------------|
A|-------------------------------------------------------------------------------------|
E|-7-7-7-7-7-7-7-7-7-7-7-7-7-7-7-7-5-5-5-5-5-5-5-5-5-5-5-5-5-5-4-4---------------------|

G|-------------------------------------------------------------------------------------|
D|-------------------------------------------------------------------------------------|
A|---------------------------------12-12-12-12-12-12-12-12-12-12-12-12-12-12-12-12-5---|
E|-3-3-3-3-3-3-3-3-7-7-7-7-7-7-7-7-----------------------------------------------------|



| /  slide up
| \  slide down
| h  hammer-on
| p  pull-off
| ~  vibrato
| +  harmonic
| x  Mute note
            
Submit corrections

comments powered by Disqus
↑ Back to top | Young The Giant Bass for Cough Syrup. Lyrics for acoustic guitar and electric guitar. Tablatures and chords are parodies/interpretations of the original songs. You may use it for private study, scholarship, research or language learning purposes only