>
 >
Good Lovin'

Good Lovin' Bass Tabs

Young Rascals - Good Lovin' chords, tabs, tablatures, lyrics

Guitar lessons | Add/correct | Request | Top 50 tabs Artists:  A B C D E F G H I J K L M N O P Q R S T U V W X Y Z 0-9

Good Lovin' Bass Tabs – Young Rascals

CD, Sheet music, Poster

Do you like Good Lovin'? Share with your friends now
Bass TabsChordsChords v2
The Young Rascals
Written by Rudy Clark and Arthur Resnick; released as a single with "Mustang 
Sally" as the B-side, and on the album "The Young Rascals".

Refrain:
G|------- ------- ------- -------|------- ------- ------- -------|
D|-------------------------------|-------------------------------|
A|-------------------------------|-------------------------------|
E|-------------------------------|-------------------------------|
                                  One,    two,    three!  Good


G|------- ------- ------- -------|------- ------- ------- -------|
D|----------------5-----------5--|7-----------7---5--------------|
A|5-----------5------------------|-------------------------------|
E|-------------------------------|-------------------------------|
  love,                                                   good


G|------- ------- ------- -------|------- ------- ------- -------|
D|----------------5--------------|7-----------7---5--------------|
A|5-----------5------------------|-------------------------------|
E|-------------------------------|-------------------------------|
  love,                                                   Good


G|------- ------- ------- -------|------- ------- ------- -------|
D|----------------5-----------5--|7-----------7---5--------------|
A|5-----------5------------------|-------------------------------|
E|-------------------------------|-------------------------------|
  love,                                                   good


G|------- ------- ------- -------|------- ------- ------- -------|
D|-------------------------------|-------------------------------|
A|5------------------------------|-------------------------------|
E|-------------------------------|-------------------------------|
  love!


G|------- ------- ------- -------|------- ------- ------- -------|
D|-------------------------------|-------------------------------|
A|-------------------------------|-------------------------------|
E|-------------------------------|-------------------------------|
                                                  I   was     fee-

Verse:
G|------- ------- ------- -------|------- ------- ------- -------|
D|----------------5-----------5--|7-----------7---5--------------|
A|5-----------5------------------|-------------------------------|
E|-------------------------------|-------------------------------|
      lin'                                            so      bad,


G|------- ------- ------- -------|------- ------- ------- -------|
D|----------------5--------------|7-----------7---5--------------|
A|5-----------5------------------|-------------------------------|
E|-------------------------------|-------------------------------|
                                                              I


G|------- ------- ------- -------|------- ------- ------- -------|
D|----------------5--------------|7-----------7---5--------------|
A|5-----------5------------------|-------------------------------|
E|-------------------------------|-------------------------------|
  asked   my      fami -  ly  doc  -  tor just    what I      had.


G|------- ------- ------- -------|------- ------- ------- -------|
D|----------------5-----------5--|7-----------7---5-------7------|
A|5-----------5------------------|-------------------------------|
E|-------------------------------|-------------------------------|
                                              I       said:


G|------- ------- ------- -------|------- ------- ------- -------|
D|----------------5-----------5--|7-----------7---5-------7------|
A|5-----------5------------------|-------------------------------|
E|-------------------------------|-------------------------------|
 "Doc  -  tor,                                Mis  -  ter M.
                 (doc  -  tor)

G|------- ------- ------- -------|------- ------- ------- -------|
D|----------------5-----------5--|7-----------7---5--------------|
A|5-----------5------------------|-------------------------------|
E|-------------------------------|-------------------------------|
  D.,                                         Now can you     tell
                 (doc  -  tor)

G|------- ------- ------- -------|------- ------- ------- -------|
D|----------------5-----------5--|7-----------7---5--------------|
A|5-----------5------------------|-------------------------------|
E|-------------------------------|-------------------------------|
          me                              what's  ai  -   lin'


G|------- ------- ------- -------|------- ------- ------- -------|
D|----------------5-----------5--|7-----------7---5--------------|
A|5-----------5------------------|-------------------------------|
E|-------------------------------|-------------------------------|
  me?"                                        He      said:
                 (doc  -  tor)

G|------- ------- ------- -------|------- ------- ------- -------|
D|------------5------------------|----7-------------------7------|
A|5-----------------------5------|----------------5--------------|
E|-------------------------------|-------------------------------|
 "Yeah,       yeah,       yeah,       yeah,       yeah!"


G|------- ------- ------- -------|----7-- ------- ------- -------|
D|------------5------------------|----------------7-------5------|
A|5-----------------------5------|-------------------------------|
E|-------------------------------|-------------------------------|
                                                  Yes     in-
 (yeah,       yeah,       yeah,       yeah,       yeah)

G|------- ------- ------- -------|------- ------- ------- -------|
D|-------------------------------|-------------------------------|
A|7---7---7---7---7---7---7---7--|7---7---7---7---7---7---7---7--|
E|-------------------------------|-------------------------------|
  deed,                                           all I,


G|------- ------- ------- -------|------- ------- ------- -------|
D|7---7---7---7---7---7---7---7--|7-------5-------4-------7------|
A|-------------------------------|-------------------------------|
E|-------------------------------|-------------------------------|
              I   really      need:                       Good

Refrain:
G|------- ------- ------- -------|------- ------- ------- -------|
D|----------------5-----------5--|7-----------7---5-------5------|
A|5-----------5------------------|-------------------------------|
E|-------------------------------|-------------------------------|
  love,       now give me that    good,   good    love,   good


G|------- ------- ------- -------|------- ------- ------- -------|
D|----------------5--------------|7-----------7---5--------------|
A|5-----------5------------------|-------------------------------|
E|-------------------------------|-------------------------------|
  love,           all I       need    is      love,       Good


G|------- ------- ------- -------|------- ------- ------- -------|
D|----------------5--------------|7-----------7---5-------7------|
A|5-----------5------------------|-------------------------------|
E|-------------------------------|-------------------------------|
  love,               good    lo  -   vin',   ba  -   by, good


G|------- ------- ------- -------|------- ------- ------- -------|
D|-------------------------------|-------------------------------|
A|5------------------------------|-------------------------------|
E|-------------------------------|-------------------------------|
  love!


G|------- ------- ------- -------|------- ------- ------- -------|
D|-------------------------------|-------------------------------|
A|-------------------------------|-------------------------------|
E|-------------------------------|-------------------------------|
                                              Now honey,      please,

Verse:
G|------- ------- ------- -------|------- ------- ------- -------|
D|----------------5-----------5--|7-----------7---5-----------7--|
A|5-----------5------------------|-------------------------------|
E|-------------------------------|-------------------------------|
                                                  squeeze me


G|------- ------- ------- -------|------- ------- ------- -------|
D|----------------5-----------5--|7-----------7---5-------7---7--|
A|5-----------5------------------|-------------------------------|
E|-------------------------------|-------------------------------|
  tight,
                 (squeeze me  tight)

G|------- ------- ------- -------|------- ------- ------- -------|
D|----------------5-----------5--|7-----------7---5-------7------|
A|5-----------5------------------|-------------------------------|
E|-------------------------------|-------------------------------|
      Don't   you want    your ba  -  by      to  be      all


G|------- ------- ------- -------|------- ------- ------- -------|
D|----------------5-----------5--|7-----------7---5-------7------|
A|5-----------5------------------|-------------------------------|
E|-------------------------------|-------------------------------|
  right?                                      I       said,
                 (be  all     right)

G|------- ------- ------- -------|------- ------- ------- -------|
D|------------5-----------5---7--|------------5---5-------7------|
A|5------------------------------|-------------------------------|
E|-------------------------------|-------------------------------|
  ba    -     by,                             now it's    for
                 (ba  -   by)

G|------- ------- ------- -------|------- ------- ------- -------|
D|------------5---5-------5------|7-----------5-----------7------|
A|5------------------------------|-------------------------------|
E|-------------------------------|-------------------------------|
  sure,                                       I've    got     the
                 (it's for    sure)

G|------- ------- ------- -------|------- ------- ------- -------|
D|----------------5-----------5--|7-----------7---5-------7------|
A|5-----------5------------------|-------------------------------|
E|-------------------------------|-------------------------------|
  fe  -   ver,        yeah,                   and you've  the cure.
                                                      got

G|------- ------- ------- -------|------- ------- ------- -------|
D|----------------5-----------5--|7-----------7---5-------7------|
A|5-----------5------------------|-------------------------------|
E|-------------------------------|-------------------------------|
                                          Every - bo  -   dy,
                 (got     the cure)

G|------- ------- ------- -------|------- ------- ------- -------|
D|------------5------------------|----------------7-------5------|
A|5-----------------------5------|----5--------------------------|
E|-------------------------------|-------------------------------|
  yeah,       yeah,       yeah,       yeah,       yeah!


G|------- ------- ------- -------|----7-- ------- ------- -------|
D|------------5------------------|------------------------7------|
A|5-----------------------5------|-------------------------------|
E|-------------------------------|----------------7--------------|
                                                  Yes,    in-
 (yeah,       yeah,       yeah,       yeah,       yeah)

G|------- ------- ------- -------|------- ------- ------- -------|
D|-------------------------------|------------------------5------|
A|7---7---7---7---7---7---7---7--|7---7---7---7---7---7----------|
E|-------------------------------|-------------------------------|
  deed,                                           all I,


G|------- ------- ------- -------|------- ------- ------- -------|
D|7---7---7---7---7---7---7---7--|7-------5-------4-------7------|
A|-------------------------------|-------------------------------|
E|-------------------------------|-------------------------------|
              I   really      need:                       Good

Refrain:
G|------- ------- ------- -------|------- ------- ------- -------|
D|----------------5-----------5--|7-----------7---5-------5---7--|
A|5-----------5------------------|-------------------------------|
E|-------------------------------|-------------------------------|
  love,       now come on,    now give me that    love,   good


G|------- ------- ------- -------|------- ------- ------- -------|
D|----------------5-----------5--|7-----------7---5-------5---7--|
A|5-----------5------------------|-------------------------------|
E|-------------------------------|-------------------------------|
  love,           all I       need    is      love,       Good


G|------- ------- ------- -------|------- ------- ------- -------|
D|----------------5-----------5--|7-----------7---5-------7------|
A|5-----------5------------------|-------------------------------|
E|-------------------------------|-------------------------------|
  love,               good    lo  -   vin',   ba  -   by, good


G|------- ------- ------- -------|------- ------- ------- -------|
D|-------------------------------|-------------------------------|
A|5------------------------------|-------------------------------|
E|-------------------------------|-------------------------------|
  love!


G|------- ------- ------- -------|------- ------- ------- -------|
D|------------------------7------|----5-----------4-------7------|
A|5------------------------------|-------------------------------|
E|------------8------------------|-------------------------------|


Break (solo):
G|------- ------- ------- -------|------- ------- ------- -------|
D|----------------5-----------5--|7-----------7---5-------5---7--|
A|5-----------5------------------|-------------------------------|
E|-------------------------------|-------------------------------|



G|------- ------- ------- -------|------- ------- ------- -------|
D|----------------5-----------5--|7-----------7---5-------5---7--|
A|5-----------5------------------|-------------------------------|
E|-------------------------------|-------------------------------|



G|------- ------- ------- -------|------- ------- ------- -------|
D|----------------5-----------5--|7-----------7---5-------7------|
A|5-----------5------------------|-------------------------------|
E|-------------------------------|-------------------------------|



G|------- ------- ------- -------|------- ------- ------- -------|
D|----------------5-----------5--|7-----------7---5-------7------|
A|5-----------5------------------|-------------------------------|
E|-------------------------------|-------------------------------|



G|------- ------- ------- -------|------- ------- ------- -------|
D|------------5---------------5--|7-----------7---5-------7------|
A|5------------------------------|-------------------------------|
E|-------------------------------|-------------------------------|



G|------- ------- ------- -------|------- ------- ------- -------|
D|----------------5-----------5--|7-----------7---7-------5------|
A|5-----------5------------------|-------------------------------|
E|-------------------------------|-------------------------------|



G|------- ------- ------- -------|------- ------- ------- -------|
D|----------------5-----------5--|7-----------7---5--------------|
A|5-----------5------------------|------------------------5------|
E|-------------------------------|-------------------------------|



G|------- ------- ------- -------|------- ------- ------- -------|
D|4-----------------------4------|6-------6---------------6------|
A|------------5------------------|------------7-------7----------|
E|-------------------------------|-------------------------------|



G|------- ------- ------- -------|------- ------- ------- -------|
D|7-------5---7-------5---7------|7------------------------------|
A|-------------------------------|-------------------------------|
E|-------------------------------|-------------------------------|



G|------- ------- ------- -------|
D|-------------------------------|
A|-------------------------------|
E|-------------------------------|
                          Good

Outro:
G|------- ------- ------- -------|------- ------- ------- -------|
D|----------------5-----------5--|7-----------7---5-----------7--|
A|5-----------5------------------|-------------------------------|
E|-------------------------------|-------------------------------|
  love,                                                   good


G|------- ------- ------- -------|------- ------- ------- -------|
D|----------------5-----------5--|7-----------7---5-----------7--|
A|5-----------5------------------|-------------------------------|
E|-------------------------------|-------------------------------|
  love, yeah, now!                                        Good


G|------- ------- ------- -------|------- ------- ------- -------|
D|----------------5-----------5--|7-----------7---5-----------7--|
A|5-----------5------------------|-------------------------------|
E|-------------------------------|-------------------------------|
  love,           all I       need    is      love,       good


G|------- ------- ------- -------|------- ------- ------- -------|
D|----------------5-----------5--|7-----------7---5-----------7--|
A|5-----------5------------------|-------------------------------|
E|-------------------------------|-------------------------------|
  love,           all I       want    is      love,       Good


G|------- ------- ------- -------|------- ------- ------- -------|
D|----------------5-----------5--|7-------7---7---5-------7------|
A|5-----------5------------------|-------------------------------|
E|-------------------------------|-------------------------------|
  love,           lovin'      early in the morning,       good


G|------- ------- ------- -------|------- ------- ------- -------|
D|----------------5-------5------|7-------7-------5-------7------|
A|5-------5----------------------|-------------------------------|
E|-------------------------------|-------------------------------|
  love,           lovin'      late   at      night  now, Good


G|------- ------- ------- -------|------- ------- ------- -------|
D|----------------5-------5------|7-------7-------5-------5---7--|
A|5-------5----------------------|-------------------------------|
E|-------------------------------|-------------------------------|
  love,       love,                           love,       good


G|------- ------- ------- -------|------- ------- ------- -------|
D|----------------5-------5------|7-------7-------5-------5---7--|
A|5-------5----------------------|-------------------------------|
E|-------------------------------|-------------------------------|
  love,       love,   love,   love,   love,   love!


G|------- ------- ------- -------|------- ------- ------- -------|
D|-------------------------------|-------------------------------|
A|5------------------------------|-------------------------------|
E|-------------------------------|-------------------------------|



G|------- ------- ------- -------|------- ------- ------- -------|
D|-------------------------------|-------------------------------|
A|-------------------------------|-------------------------------|
E|-------------------------------|-------------------------------|



G|------- ------- ------- -------|------- ------- ------- -------|
D|------------5-----------7------|----5-----------7-------5------|
A|5------------------------------|-------------------------------|
E|-------------------------------|-------------------------------|



G|------- ------- ------- -------|------- ------- ------- -------|
D|-------------------------------|-------------------------------|
A|5------------------------------|-------------------------------|
E|-------------------------------|-------------------------------|

Please e-mail me for any corrections, or write a comment.





Comments


Popular Young Rascals tabs & chords
Its A Beautiful Morning Bass Tabs
Lonely Too Long Bass Tabs
Come On Up Chords
Good Lovin' Chords
Groovin 2 Chords
Groovin' 1 Chords
I Aint Gonna Eat Out My Heart Anymore Chords
You Better Run Chords
Good Lovin Ukulele
People Got To Be Free Ukulele


Song lyrics



↑ Back to top | Tablatures and chords are parodies/interpretations of the original songs. You may use it for private study, scholarship, research or language learning purposes only
© 2014 AZChords.com Contact us | Privacy policy | DMCA | Add/correct tabs | Request tabs | Top 50 tabs