» » »

Heart Of Gold Bass tabs (ver.1)

Artists:  A B C D E F G H I J K L M N O P Q R S T U V W X Y Z # 

Heart Of Gold Bass tabs (ver.1)

Young Neil
Rating:
0/5 (0 votes)

Hard to play? Try these video lessons and learn fast.
                "HEART OF GOLD"
BY NEIL YOUNG

                          INTRO

G-----------------------------------------------------------------
D-------------------------------5-------------------------------5-
A-7-7-7-7-7-7-7-7-5-5-7-----5h7---7-7-7-7-7-7-7-7-5-5-7-----5h7---
E-----------------------5h7-----------------------------5h7-------

G---------------------------------------------------------------------
D---------------------------------------------------------------------
A---2-3-3-5-5-------2-3-3-5-5-------2-3-3-5-5-----7-7-7-7-7-7-7-7-5-5-
E-0-----------3-3-0-----------3-3-0-----------3-3---------------------

G-----------
D---------5-
A-----5h7---
E-5h7-------


                           VERSE

G-----------------------------------------------------------------
D-----------------------------------------------------------------
A---2-3-3-5-5-------2-3-3-5-5-------2-3-3-5-5-----7-7-7-7-7-7-7-7-
E-0-----------3-3-0-----------3-3-0-----------3-3-----------------

G----------------------------------------------------------------
D----------------------------------------------------------------
A-----------------3-3-3--3-3-0---7-7-7-7-7-7-7-7-----------------
E-3-3-3-3-3-3-3-3--------------3-----------------3-3-3-3-3-3-3-3-

G----------------
D----------------
A-3-3-3--3-3-0---
E--------------3-


                    HARMONICA BREAK

G-----------------------------------------------------------------------
D-----------------------------------------------------------------------
A---2-3-3-5-5-------2-3-3-5-5-------2-3-3-5-5-----7-7-7-7-7-7-7-7-5-5-7-
E-0-----------3-3-0-----------3-3-0-----------3-3-----------------------

G-----------
D---------5-
A-----5h7---
E-5h7-------


                              VERSE

                        HARMONICA BREAK

                         OUTRO(play intro)
            
Hard to play? Try these video lessons and learn fast. | Correct




comments powered by Disqus
↑ Back to top | Tablatures and chords are parodies/interpretations of the original songs. You may use it for private study, scholarship, research or language learning purposes only