>
 >
Harvest

Harvest Bass Tabs

Young Neil - Harvest chords, tabs, tablatures, lyrics

Guitar lessons | Add/correct | Request | Top 50 tabs Artists:  A B C D E F G H I J K L M N O P Q R S T U V W X Y Z 0-9

Harvest Bass Tabs – Young Neil

CD, Sheet music, Poster

Do you like Harvest? Share with your friends now
Bass TabsBass Tabs v2Chords
Harvest - Neil Young
           by Serena Di Iulio 

             intro           verse and chorus 1
                h  h   4x       h  h     h  h     h  q  q             
G----------||----------||--||---------|--------|-----------|----------
D---4:-----||*--------*||--||*--------|--------|-----------|----------
A---4:-----||*--5-----*||--||*--5-----|-----5--|--5--5--2--|----------
E----------||------5---||--||------5--|--3-----|-----------|----------
                                                                      
                        
                                                 
    h  h     h  h     h  h     h  h     h  h   2x  h  h     h  h      
G---------|--------|--------|--------|---------||--------|------------
D---------|--------|--------|--------|--------*||--------|------------
A---------|--------|--2-----|--5-----|--5-----*||--5-----|--5---------
E---5--0--|--3--5--|-----0--|-----5--|-----5---||-----5--|-----5------
                                                                      
      verse and chorus 2
         h  h     h  h     h  q  q     h  h     h  h                  
G---||---------|--------|-----------|--------|--------|---------------
D---||*--------|--------|-----------|--------|--------|---------------
A---||*--5-----|-----5--|-----5--2--|--------|--------|---------------
E---||------5--|--3-----|--5--------|--5--0--|--3--5--|---------------

                                                                      
                                        guitar solo
    q  E  s  q  q     h  h     h  h   2x  q  q  h     h  h            
G------------------|--------|---------||-----------|--------|---------
D------------------|--------|--------*||-----------|--------|---------
A---2--------------|--5-----|--5-----*||--5--5-----|-----5--|---------
E------5--2--0--0--|-----5--|-----5---||--------5--|--3-----|---------
                                                                      

    h  q  q     h  h     h  h     q  E  s  q  E  s     h  h     h  h      
G-----------|--------|--------|--------------------|--------|--------|
D-----------|--------|--------|--------------------|--------|--------|
A-----5--2--|--------|--------|--2-----------------|--5-----|--5-----|
E--5--------|--5--0--|--3--5--|-----2--1--0--0--0--|-----5--|-----5--|
                                                                      

Verse 3 same as verse 1


Chorus 3
    h  h     h  h     h  q  q     h  h     h  h              
G---------|--------|-----------|--------|--------|-----------
D---------|--------|-----------|--------|--------|-----------
A---5-----|-----5--|--5--5--2--|--------|--------|-----------
E------5--|--3-----|-----------|--5--0--|--3--5--|-----------
                                                                      

    h  h     h  h     h  h     h  h     h  h     h  q  q              
G---------|--------|--------|--------|--------|-----------|-----------
D---------|--------|--------|--------|--------|-----------|-----------
A---2-----|--5-----|--5-----|--5-----|-----5--|-----5--2--|-----------
E------0--|-----5--|-----5--|-----5--|--3-----|--5--------|-----------
                                                                      

    h  q  q     h  h     q  e^ e^ e^ q  q     h  h     h  h           
G------------|--------|--------------------|--------|--------|--------
D------------|--------|--------------------|--------|--------|--------
A------------|--------|--2--0--------------|--5-----|--5-----|--------
E---5--0--2--|--3--5--|--------2--1--0--0--|-----5--|-----5--|--------
                                                                      

    h  h     q  e^ e^ e^ q  q     h  h     w                          
G---------|--------------------|--------|-----||----------------------
D---------|--------------------|--------|-----||----------------------
A---------|--2--0--------------|--5-----|--5--||----------------------
E---3--5--|--------2--1--0--0--|-----5--|-----||----------------------
                                                                      



==                      TABLATURE EXPLANATION                       ==

----------                ----------                ----t---
----5h8--- Hammeron       ----(8)--- Ghost          ----6--- Tap
----------                ---------- Note           --------
----5p8--- Pulloff        ----------                --------

----------                ----------                -----p--
----5/8--- Slide Up       -----x---- Dead           -----7-- Pop
----------                ---------- Note           --s-----
----5\8--- Slide Down     ----------                --5----- Slap 

----------                ||------|| Repeat         --------
----5~~~-- Vibrato        ||*----*||                ---5^--- Bend
----------                ||*----*||                --------
----------                ||------||                --------

----------                ----------                --------
-4:------- Time           ----------                --------
-4:------- Signature      ----------                --------
----------                ----------                --------

Rhythm:
  w = whole note            W = dotted whole
  h = half note             H = dotted half
  q = quarter note          Q = dotted quarter
  e = eighth note           E = dotted eighth
  s = sixteenth note        S = dotted sixteenth
  t = 32nd note             T = dotted 32nd
  x = 64th note             X = dotted 64th
  ^ = triplet

==              Created with BUCKET O' TAB for Windows              ==





Comments


Popular Young Neil tabs & chords
Cocaine Eyes Chords
Hey Hey Chords
Interstate Chords
Prisoners Of Rock And Roll Chords
After The Goldrush 1 Tabs
Ambulance Tabs
Heart Of Gold 2 Tabs
Horse With No Name Tabs
Needle And The Damage Done Tabs
Old Man Tabs


Song lyrics



↑ Back to top | Tablatures and chords are parodies/interpretations of the original songs. You may use it for private study, scholarship, research or language learning purposes only
© 2014 AZChords.com Contact us | Privacy policy | DMCA | Add/correct tabs | Request tabs | Top 50 tabs