» » »

Young Mc, Principals Office Bass tabs (ver.2)

Artists:  A B C D E F G H I J K L M N O P Q R S T U V W X Y Z # 

Principals Office Bass tabs (ver.2)

Young Mc Tabs
 Rating:
4/5 (4 votes)
Principals Office lessons Tabs too difficult? Try these video lessons and learn fast
1
                Chorus
    h  q  q  e  e  h    q  q  e  e  e     h  q  q  e  e  h  q  e  e     
G---------------------4/6--4-----4-----|--------------------------6-----
D------6--4-------------------6-----6--|-----6--4-----------3--4--------
A------------6--5--4-------------------|-----------6--5--4--------------
E---4----------------------------------|--4-----------------------------
                                                                        

    e  e     h  q  q  e  e  h    q  e  e  e  e  e     h  q  q  e  e     
G---4-----|--------------------4/6--8--r--6--4-----|--------------------
D------6--|-----6--4-------------------e--------6--|-----6--4-----------
A---------|-----------6--5--4----------s-----------|-----------6--5-----
E---------|--4-------------------------t-----------|--4-----------------
                                                                        

    e  e     e  e     e  e     e  e                                     
G------------------------------------||---------------------------------
D------------------------------------||---------------------------------
A---4--4--x--------------------------||---------------------------------
E------------1--1--x--2--2--x--3--3--||---------------------------------
                                                                        



==                       TABLATURE EXPLANATION                        ==

----------                ----------                ----t---
----5h8--- Hammeron       ----(8)--- Ghost          ----6--- Tap
----------                ---------- Note           --------
----5p8--- Pulloff        ----------                --------

----------                ----------                -----p--
----5/8--- Slide Up       -----x---- Dead           -----7-- Pop
----------                ---------- Note           --s-----
----5\8--- Slide Down     ----------                --5----- Slap 

----------                ||------|| Repeat         --------
----5~~~-- Vibrato        ||*----*||                ---5^--- Bend
----------                ||*----*||                --------
----------                ||------||                --------

----------                ----------                --------
-4:------- Time           ----------                --------
-4:------- Signature      ----------                --------
----------                ----------                --------

Rhythm:
  w = whole note            W = dotted whole
  h = half note             H = dotted half
  q = quarter note          Q = dotted quarter
  e = eighth note           E = dotted eighth
  s = sixteenth note        S = dotted sixteenth
  t = 32nd note             T = dotted 32nd
  x = 64th note             X = dotted 64th
  ^ = triplet
            
Submit corrections

comments powered by Disqus
↑ Back to top | Young Mc Bass for Principals Office. Lyrics for acoustic guitar and electric guitar. 1 Tablatures and chords are parodies/interpretations of the original songs. You may use it for private study, scholarship, research or language learning purposes only