» » »

Young Love, Discotech Bass tabs (ver.1)

Artists:  A B C D E F G H I J K L M N O P Q R S T U V W X Y Z # 

Discotech Bass tabs (ver.1)

Young Love Tabs
 Rating:
4/5 (4 votes)
Discotech lessons Tabs too difficult? Try these video lessons and learn fast
                -------------------------------------------------------------------------------
-------------------------------------------------------------------------------


Note: Revised tabbed version of the song (I made a mistake on the first one I sent; I 

Tuning: E A D G

Intro [00:00 - 00:25]: (NOTE: do this thrice)

G|--------------------------------------------------------------------------|
D|--------------------------------------------------------------------------|
A|--------------------------------------------------------------------------|
E|--3/5-5-5-5-----0-1-1-1-1-------1/3-3-3-3-------3/5-5-5-5-----------------|

Verse 1 [00:26 - 00:38]:

   "Stepping out...      flying so... ... it's the good -   times..."
G|--------------------------------------------------------------------------|
D|--------------------------------------------------------------------------|
A|--------------------------------------------------------------------------|
E|--3/5-5----------------0-1-1------------------------------3-3/5-5---------|

   "Are you ready...     to hit it running...               this is where..."
G|--------------------------------------------------------------------------|
D|--------------------------------------------------------------------------|
A|--------------------------------------------------------------------------|
E|--3/5-5----------------0-1-1------------------------------3-3-3-3/5-5-----|

  "You can't fake this...                                  you wanna lose..."
G|--------------------------------------------------------------------------|
D|--------------------------------------------------------------------------|
A|--------------------------------------------------------------------------|
E|--3/5-5----------------0-1-1------------------------------3-3-3-3/5-5-----|

  "You can't fake this...                                  you wanna lose..."
G|--------------------------------------------------------------------------|
D|--------------------------------------------------------------------------|
A|--------------------------------------------------------------------------|
E|--3/5-5----------------0-1-1-----------------------------3-3-3-3/5-5-5-5--|


    "the way that she does it... I can't get enough" (do this four times)
G|--------------------------------------------------------------------------|
D|--------------------------------------------------------------------------|
A|-----------------------------------3-3-------5---5------------------------|
E|--3/5-5------------------1-1----------------------------------------------|

Chorus:

   "Attack!...         Discotech!...    Let's get down...  long time... "
G|--------------------------------------------------------------------------|
D|---------------------------------------------------------0-0-0-0-0-0-0----|
A|----0-0-0-0-0-0-0---------------------3-3-3-3-3-3-3-----------------------|
E|---------------------1-1-1-1-1-1-1----------------------------------------|

   "She's back!...     Discotech!...    Let's get down...  long time... "
G|--------------------------------------------------------------------------|
D|---------------------------------------------------------0-0-0-0-0-0-0----|
A|----0-0-0-0-0-0-0---------------------3-3-3-3-3-3-3-----------------------|
E|---------------------1-1-1-1-1-1-1----------------------------------------|

Part [2:38 - 2:44]: (do this twice)

G|--------------------------------------------------------------------------|
D|--------------------------------------------------------------------------|
A|------------------------------------3-3----------5-5----------------------|
E|-----3/5-5-----------1--1-------------------------------------------------|

Verse 2: (NOTE: Verse 2 is slightly different from Verse 1; based on song)

   "Show up in the...               me and my crew...
G|--------------------------------------------------------------------------|
D|--------------------------------------------------------------------------|
A|--------------------------------------------------------------------------|
E|--3/5-5-5-5-----0-1-1-1-1-1--------3-3-3-3-------3/5-5-5-5----------------|

   "She's giving me...              the way I'm feeling..."
G|--------------------------------------------------------------------------|
D|--------------------------------------------------------------------------|
A|--------------------------------------------------------------------------|
E|--3/5-5-5-5-----0-1-1-1-1-1--------3-3-3-3-------3/5-5-5-5----------------|

  "You can't fake this...                                  you wanna lose..."
G|--------------------------------------------------------------------------|
D|--------------------------------------------------------------------------|
A|--------------------------------------------------------------------------|
E|--3/5-5----------------0-1-1------------------------------3-3-3-3/5-5-----|

  "You can't fake this...                                  you wanna lose..."
G|--------------------------------------------------------------------------|
D|--------------------------------------------------------------------------|
A|--------------------------------------------------------------------------|
E|--3/5-5----------------0-1-1-----------------------------3-3-3-3/5-5-5-5--|


    "the way that she does it... I can't get enough" (do this four times)
G|--------------------------------------------------------------------------|
D|--------------------------------------------------------------------------|
A|-----------------------------------3-3-------5---5------------------------|
E|--3/5-5------------------1-1----------------------------------------------|


Chorus 2: (Note: This is the same as Chorus 1)

   "Attack!...         Discotech!...    Let's get down...  long time... "
G|--------------------------------------------------------------------------|
D|---------------------------------------------------------0-0-0-0-0-0-0----|
A|----0-0-0-0-0-0-0---------------------3-3-3-3-3-3-3-----------------------|
E|---------------------1-1-1-1-1-1-1----------------------------------------|

   "She's back!...     Discotech!...    Let's get down...  long time... "
G|--------------------------------------------------------------------------|
D|---------------------------------------------------------0-0-0-0-0-0-0----|
A|----0-0-0-0-0-0-0---------------------3-3-3-3-3-3-3-----------------------|
E|---------------------1-1-1-1-1-1-1----------------------------------------|

Part [2:38 - 2:44]:

    "the way that she does it... I can't get enough"
G|--------------------------------------------------------------------------|
D|--------------------------------------------------------------------------|
A|-----------------------------------3-3-------5---5------------------------|
E|--3/5-5------------------1-1----------------------------------------------|

Instrumental:

Part [2:45 - 2:57]:

G|--------------------------------------------------------------------------|
D|-------------------3-3-3-3-3-3-3-3----------------------------------------|
A|------------------------------------3-3-3-3-3-3-3-3----5-5-5-5-5-5-5-5----|
E|-3/5-5-5-5-5-5-5-5--------------------------------------------------------|

Part [2:58 - 3:12]:
  "you make fast..."
G|--------------------------------------------------------------------------|
D|-------------------3-3-3-3-3-3-3-3----------------------------------------|
A|------------------------------------3-3-3-3-3-3-3-3----5-5-5-5-5-5-5-5----|
E|-5-5-5-5-5-5-5-5----------------------------------------------------------|
Part [3:13 - 3:39]:

Chorus:

   "Attack!...         Discotech!...    Let's get down...  long time... "
G|--------------------------------------------------------------------------|
D|---------------------------------------------------------0-0-0-0-0-0-0----|
A|----0-0-0-0-0-0-0---------------------3-3-3-3-3-3-3-----------------------|
E|---------------------1-1-1-1-1-1-1----------------------------------------|

   "She's back!...     Discotech!...    Let's get down...  long time... "
G|--------------------------------------------------------------------------|
D|---------------------------------------------------------0-0-0-0-0-0-0----|
A|----0-0-0-0-0-0-0---------------------3-3-3-3-3-3-3-----------------------|
E|---------------------1-1-1-1-1-1-1----------------------------------------|

Instrumental 2

Part [3:40 - 3:50]:
G|--------------------------------------------------------------------------|
D|--------------------------------------------------------------------------|
A|------------------------------------3-3----------5-5----------------------|
E|----3/5-5-----------1--1--------------------------------------------------|

Outro:

Part [3:51 - end]: (Note: be careful enough to hear this last part; based on the song)
G|---------------------------------------------------------------------------|
D|---------------------------------------------------------------------------|
A|---------------------------------------------------------------------------|
E|----3/5-5------------------------------------------------------------------|


Young Love - Discotech Lyrics


Stepping out tonight flying so high
It's the good times keeping me alive
Are you ready to hit it running
This is where it's at six in the morning

You can't fake this only imitate this (you wanna lose control)
You can't fake this only imitate this (you wanna lose control)
The way she does it I can't get enough
The way she does it I can't get enough

Attack we keep it on the dance floor
Discotech meet me at the back door
Let's get down we've been waiting a long time
She's back i can feel it in the air
Discotech you know she's going to be there
Let's get down we've been waiting a long time

Show up in the club take a look around
Me and my crew we came to get down
She's giving me looks I can't help it
The way I'm feeling it's going to happen

You can't fake this only imitate this (you wanna lose control)
You can't fake this only imitate this (you wanna lose control)
The way she does it I can't get enough
The way she does it I can't get enough

Attack we keep it on the dance floor
Discotech meet me at the back door
Let's get down we've been waiting a long time
She's back I can feel it in the air
Discotech you know she's going to be there
Let's get down we’ve been waiting a long time

The way she does it I can't get enough

You make fast living look just fine
Looks like I got here just in time
Tonight the city is yours and mine
But it won’t last forever

Attack we keep it on the dance floor
Discotech meet me at the back door
Let's get down we've been waiting a long time
She's back I can feel it in the air
Discotech you know she's going to be there
Let's get down we’ve been waiting a long time

| /  slide up
| \  slide down
| h  hammer-on
| p  pull-off
| ~  vibrato
| +  harmonic
| x  Mute note
===============================================================================
            
Submit corrections

comments powered by Disqus
↑ Back to top | Young Love Bass for Discotech. Lyrics for acoustic guitar and electric guitar. Tablatures and chords are parodies/interpretations of the original songs. You may use it for private study, scholarship, research or language learning purposes only