» » »

Close Your Eyes Tabs (ver.4)

Artists:  A B C D E F G H I J K L M N O P Q R S T U V W X Y Z # 

Close Your Eyes Tabs (ver.4)

Young Love
Rating:
4/5 (10 votes)

Tabs too difficult? Try these video lessons and learn fast.
                taking 100s of tabs (not saying I can actually PLAY the songs) from this splendid

Intro
E---------------------------------------------------------------------------|
B------4------4----------3-----3------3-----3--------1----------------------|
G----3------3-----3----3-----3------3-----3-----3------2------3-------------|
D--5------5-----5----5-----5------3-----3-----3----3-----3------5-----------|
A-----------------------------------------------------------6----6----------|
E---------------------------------------------------------------------------|

Chord sections
E----3-----|---3----|----1----|--1---|
B----4-----|---3----|----3----|--1---|
G----3-----|---3----|----3----|--2---|
D----5-----|---5----|----3----|--3---|
A----6-----|---5----|----1----|--3---|
E----7-----|---3----|---------|--1---|

Bridge

E---------------------------------------------------------------------------|
B---------------------------------------------------------------------------|
G---------------------------------------------------------------------------|
D---------------------------------------------------------------------------|
A----------1(p)0-----0(h)1--------------------------------------------------|
E---1--1---------1-1--------------------------------------------------------|

You don't have to play the parts with the pull-offs or hammer-ons, but it gives it a
legato feel.

P.S as you can see... I have absolutely NOOOO clue what sections of songs are called. My
terminology and theory is actually very limited. As such, I don't actually know the
of the barre chords that are listed. Maybe I will find out sooner in my attempt to 
a better hobby-musician.. or, you can always find out yourself :P

P.S.S Comments would be nice... GOOD comments, resourcesful helpful comments, and
praising my excellent tabbing (is that a word?) skills
            
Tabs too difficult? Try these video lessons and learn fast.




comments powered by Disqus
↑ Back to top | Tablatures and chords are parodies/interpretations of the original songs. You may use it for private study, scholarship, research or language learning purposes only