» » »

Young Knives, Weekends And Bleak Days Bass tabs (ver.1)

Artists:  A B C D E F G H I J K L M N O P Q R S T U V W X Y Z # 

Weekends And Bleak Days Bass tabs (ver.1)

Young Knives Tabs
 Rating:
3.8/5 (5 votes)
Weekends And Bleak Days lessons Tabs too difficult? Try these video lessons and learn fast
1
                Artist - The Young Knives
Song - Weekends and Bleak Days (Hot Summer)
Album - Voices of Animals and Men
Track - 3
Bassist - The House of Lords


Intro
G-------------------------------------------------|
D-------------------------------------------------|
A-5---5---5--5--5--5--5-5-5-5-5-5-5-5-5-5-5-5-5-5-|
E-------------------------------------------------|

Verse
G---------------------------------|
D-----7-7-7-7-7-7-----4-4-4-4-4-4-|
A-5-6-------------5-6-------------|
E---------------------------------| x10

Pre Chorus
G-----------------------------------------------------|
D-----------------------------------------------------|
A-----------0~---2~---0-0-0-0-0-0-0-0-0-0-0-0-0-0-0-0-|
E-1~---3~---------------------------------------------| x2

"Hot Summer, Hot Hot Summer!"
G---------------------------------|
D-----7-7-7-7-7-7-----4-4-4-4-4-4-|
A-5-6-------------5-6-------------|
E---------------------------------| x8

Bridge 1 (Guitar Solo)
G---------------------------------|
D----------2---1---4--4-----------|
A--------------------------3---2--|
E-/2--2---------------------------|

G---------------------------------|
D------------------4--4-----------|
A----------5---4-----------3---2--|
E-/2--2---------------------------|

G----------------------------------|
D----------------------------------|
A-/14-14-14-14-14-14-14-14-14//----|
E----------------------------------|

"Hot Summer, Hot Hot Summer!"
G---------------------------------|
D-----7-7-7-7-7-7-----4-4-4-4-4-4-|
A-5-6-------------5-6-------------|
E---------------------------------| x4

Pre Chorus
G-----------------------------------------------------|
D-----------------------------------------------------|
A-----------0~---2~---0-0-0-0-0-0-0-0-0-0-0-0-0-0-0-0-|
E-1~---3~---------------------------------------------| x4

Bridge 2
G--------------------------------------|
D--------------------------------------|
A-0~~------5~~-------0~~---------------|
E-----------------------------2~-------|

G---------------------------------|
D---------------------------------|
A---------------------------------|
E-1-1-1-1-1-1-1-1-1-1-1-1-1-1-1-1-|

Ending
G---------------------------------|
D-----7-7-7-7-7-7-----4-4-4-4-4-4-|
A-5-6-------------5-6-------------|
E---------------------------------| x4

G------------|
D-----7//----|
A-5-6--------|
E------------|
            
Submit corrections

comments powered by Disqus
↑ Back to top | Young Knives Bass for Weekends And Bleak Days. Lyrics for acoustic guitar and electric guitar. 1 Tablatures and chords are parodies/interpretations of the original songs. You may use it for private study, scholarship, research or language learning purposes only