» » »

Weekdays And Bleakdays Tabs (ver.1)

Artists:  A B C D E F G H I J K L M N O P Q R S T U V W X Y Z # 

Weekdays And Bleakdays Tabs (ver.1)

Young Knives
Rating:
5/5 (6 votes)

Hard to play? Try these video lessons and learn fast.
                
the young knives are cool. listen to them as much as you can

x=harmonics
h=hammer
p=pull off



intro and verse riff

|-----------------------------------|
|-----------------------------------|
|-----------------------------------|
|------7-7-7-7-7-7-----7-7-7-7-7-7--|
|--5-6-------------5-6--------------|
|-----------------------------------|
repeat this riff for all verses - "hot summer!"

then chorus
  e5    d5    c#5   b5       a5
|------------------------------------------------|
|------------------------------------------------|
|------------------------------------------------|
|-14----12----11----9----x-x--7--7-7-x-7--7--7-7-|
|-14----12----11----9----x-x--7--7-7-x-7--7--7-7-|
|-12----10-----9----7----x-x--5--5-5-x-0--5--5-5-|
repeat twice for chorus


verse again


solo

  b5
|---------------------------|---------------------------|
|---------------------------|---------------------------|
|---------------------------|---------------------------|
|-9-9-----------------------|-9-9-----------------------|
|-9-9--7-8-9-8-7------------|-9-9--7-8-9-8-7------------|
|-7-7-------------8----7~~~~|-7-7-------------8----7~~~~|

|---------------------------|-------------------------------|
|---------------------------|-------------------------------|
|---------------------------|-------------------------------|
|-9-9-------------7~~~~6~~~~|-9-9-----------------7~~~~-----|
|-9-9--7-8-9-8-7------------|-9-9--6h7-6h7-6h7-6-------9~~~~|
|-7-7-----------------------|-7-7---------------------------|
                                   this one looks longer than the others
                                  but its not, the"h" for hammer takes up
                                  more space, but musically, its the same
                                    length,


listen to the song, its all here work out most of the order yourself. see ya
            
Hard to play? Try these video lessons and learn fast. | Correct




comments powered by Disqus
↑ Back to top | Tablatures and chords are parodies/interpretations of the original songs. You may use it for private study, scholarship, research or language learning purposes only