» » »

Young Knives, Rumour Mill Bass tabs (ver.1)

Artists:  A B C D E F G H I J K L M N O P Q R S T U V W X Y Z # 

Rumour Mill Bass tabs (ver.1)

Young Knives Tabs
Rating:
4/5 (1 vote)
Rumour Mill lessons Tabs too difficult? Try these video lessons and learn fast
                The Young Knives
Here Comes The Rumour Mill

Intro
G|----------321321~----------321321/////18\\\\-|
D|---------------------------------------------|
A|-5435-543---------5435-543-------------------|
E|---------------------------------------------|

Verse
G|-------------77-|-------------55--|
D|-----77---------|-----55----------|
A|-55------55-----|-33------33------| x4
E|----------------|-----------------| 

Chorus
G|--------------------|--------------------|
D|--------------------|--------------------|
A|-55555555-8888-3333-|----------5555-3333-|
E|--------------------|-33333333-----------|

G|--------------------|--------------------|
D|--------------------|--------------------|
A|-55555555-8888-3333-|--------------------|
E|--------------------|-33333333-33333333--|

Verse x3

Bridge
G|---------|--------------------------|
D|---------|--------------------------|
A|-5~--3~--|-0~~------00~--00~--00~---|
E|---------|--------------------------|

G|---------|--------------------------|
D|---------|--------------------------|
A|-5~--3~--|-0~~------00~--00~--0-----|
E|---------|---------------------333--|

Chorus
G|--------------------|--------------------|
D|--------------------|--------------------|
A|-55555555-8888-3333-|----------5555-3333-| x2
E|--------------------|-33333333-----------|

G|--------------------|--------------------|
D|--------------------|--------------------|
A|-55555555-8888-3333-|--------------------|
E|--------------------|-33333333-33333333--|

Verse x4

Bridge

Chorus
G|--------------------|--------------------|
D|--------------------|--------------------|
A|-55555555-8888-3333-|----------5555-3333-|
E|--------------------|-33333333-----------|

G|--------------------|----------|
D|--------------------|----------|
A|-55555555-8888-3333-|-33333333-|
E|--------------------|

Middle 8
G|------------91011---|-----------------|
D|-77-799-977------97-|-77-799-977-7997-|
A|--------------------|-----------------|
E|--------------------|-----------------|

Chorus
G|--------------------|--------------------|
D|--------------------|--------------------|
A|-55555555-8888-3333-|----------5555-3333-| x2
E|--------------------|-33333333-----------|

G|--------------------|--------------------|
D|--------------------|--------------------|
A|-55555555-8888-3333-|--------------------|
E|--------------------|-33333333-33333333--|

G|--------------------|
D|--------------------|
A|--------------------| x4
E|-33333333-33333333--|

G|---------------------|
D|---------------------|
A|-8~---3~-8~---1--1~~-----|
E|-.----.--.----.--.---|
   Come to your senses...
   
            
Submit corrections

comments powered by Disqus
↑ Back to top | Young Knives Bass for Rumour Mill. Lyrics for acoustic guitar and electric guitar. Tablatures and chords are parodies/interpretations of the original songs. You may use it for private study, scholarship, research or language learning purposes only