» » »

Young Knives, In The Pink Bass tabs (ver.1)

Artists:  A B C D E F G H I J K L M N O P Q R S T U V W X Y Z # 

In The Pink Bass tabs (ver.1)

Young Knives Tabs
 Rating:
4.3/5 (6 votes)
In The Pink lessons Tabs too difficult? Try these video lessons and learn fast
                Band - The Young Knives
Song - In The Pink
Album - Voices of Animals and Men
Track - 4
Bassist - The House of Lords

Intro:
G------------------------------------------------|
D------------------------------------------------|
A-5-5---3-3---1-1-3/5----5-5---3-3---1-1-3-0-----|
E------------------------------------------------| x1

G--------------------------------------------|
D--------------------------------------------|
A-5-5-5-3--35-5-5-3--3/7-7-7----/8-8-8-7--7--|
E-----------------------------7--------------|

G-----------------------------------------|
D-----------------------------------------|
A-5-5-5-3--35-5-5-3--3/7-7-7----/8------8-|
E-----------------------------7-------8---|

Verse 1:
G---------------------------------------------|
D---------------------------------------------|
A-5-5-5-3--35-5-5-3--3/7-7-7----/8-8-8-7--7---|
E-----------------------------7---------------| x2

Chorus:
G------------------------------------------------|
D------------------------------------------------|
A-5-5---3-3---1-1-3/5----5-5---3-3---1-1-3/5-----|
E------------------------------------------------| x1

G------------------------------------------------|
D-----------------1-3~---------------------------|
A-5-5---3-3---1-1--------5-5---3-3---1-1-3/5-----|
E------------------------------------------------| x1

Verse 2:
Same as Verse 1

Chorus x1

Verse 3:
G---------------------------------------------|
D---------------------------------------------|
A-5-5-5-3--35-5-5-3--3/7-7-7----/8-8-8-7--7---|
E-----------------------------7---------------| x1

G--------------------------------|
D--------------------------------|
A-5-5-5-3--35-5-5-3--3/7-7-7-----|
E-----------------------------7--| x1

G--------------------------------------|
D--------------------------------------|
A---5-5-3---5-5-5-3----5-5-3---5-5-5-3-|
E--------------------------------------| x2

Chorus x3
            
Submit corrections

comments powered by Disqus
↑ Back to top | Young Knives Bass for In The Pink. Lyrics for acoustic guitar and electric guitar. Tablatures and chords are parodies/interpretations of the original songs. You may use it for private study, scholarship, research or language learning purposes only