» » »

Dyed In The Wool Tabs (ver.1)

Artists:  A B C D E F G H I J K L M N O P Q R S T U V W X Y Z # 

Dyed In The Wool Tabs (ver.1)

Young Knives
Rating:
5/5 (2 votes)

Hard to play? Try these video lessons and learn fast.
                ------------------------------------------------------------------------------
                            Dyed In The Wool
                              Young Knives
-------------------------------------------------------------------------------
This is the first tab I've done and its the only one you'll find of this song. I'm sure 
accurate but if you think otherwise please let me know.


Tuning:standard

The intro is the same as the verse which is as follows:


   Help me,                         Im starting
e|-x--x--x----x--x--x----x--x--x----x----x---------------------|
B|-14-14-14---14-14-14---14-14-14---14---14--------------------|
G|-14-14-14---14-14-14---14-14-14---14---14--------------------|
D|-14-14-14---14-14-14---14-14-14---14---14--------------------|
A|-12-12-12---12-12-12---12-12-12---11---11--------------------|
E|-x--x--x----x--x--x----x--x--x----x----x---------------------|

   to expire,                       I hope that
e|-x--x--x----x--x--x----x--x--x----x----x---------------------|
B|-14-14-14---14-14-14---14-14-14---14---14--------------------|
G|-14-14-14---14-14-14---14-14-14---14---14--------------------|
D|-14-14-14---14-14-14---14-14-14---14---14--------------------|
A|-11-12-12---12-12-12---12-12-12---11---11--------------------|
E|-x--x--x----x--x--x----x--x--x----x----x---------------------|

   I can hire,                      a helping
e|-x--9--9----9--9--9----9--9--9----9----9---------------------|
B|-14-10-10---10-10-10---10-10-10---9----9---------------------|
G|-14-11-11---11-11-11---11-11-11---11---11--------------------|
D|-14-11-11---11-11-11---11-11-11---11---11--------------------|
A|-11-9--9----9--9--9----9--9--9----9----9---------------------|
E|-x--x--x----x--x--x----x--x--x----x----x---------------------|

   hand.                                 It's
e|-9--9--9----9--9--9----9--9--9----9----9---------------------|
B|-9--10-10---10-10-10---10-10-10---9----9---------------------|
G|-11-11-11---11-11-11---11-11-11---11---11--------------------|
D|-11-11-11---11-11-11---11-11-11---11---11--------------------|
A|-9--9--9----9--9--9----9--9--9----9----9---------------------|
E|-x--x--x----x--x--x----x--x--x----x----x---------------------|

   got a meaning,                   I really
e|-9--x--x----x--x--x----x--x--x----x----x---------------------|
B|-9--14-14---14-14-14---14-14-14---14---14--------------------|
G|-11-14-14---14-14-14---14-14-14---14---14--------------------|
D|-11-14-14---14-14-14---14-14-14---14---14--------------------|
A|-9--12-12---12-12-12---12-12-12---11---11--------------------|
E|-x--x--x----x--x--x----x--x--x----x----x---------------------|

   hadn't thought of,               I really
e|-x--x--x----x--x--x----x--x--x----x----x---------------------|
B|-14-14-14---14-14-14---14-14-14---14---14--------------------|
G|-14-14-14---14-14-14---14-14-14---14---14--------------------|
D|-14-14-14---14-14-14---14-14-14---14---14--------------------|
A|-11-12-12---12-12-12---12-12-12---11---11--------------------|
E|-x--x--x----x--x--x----x--x--x----x----x---------------------|

   should take care of,             The things
e|-x--9--9----9--9--9----9--9--9----9----9---------------------|
B|-14-10-10---10-10-10---10-10-10---9----9---------------------|
G|-14-11-11---11-11-11---11-11-11---11---11--------------------|
D|-14-11-11---11-11-11---11-11-11---11---11--------------------|
A|-11-9--9----9--9--9----9--9--9----9----9---------------------|
E|-x--x--x----x--x--x----x--x--x----x----x---------------------|

   I have.
e|-9--9--9----9--9--9----9--9--9----9----9---------------------|
B|-9--10-10---10-10-10---10-10-10---9----9---------------------|
G|-11-11-11---11-11-11---11-11-11---11---11--------------------|
D|-11-11-11---11-11-11---11-11-11---11---11--------------------|
A|-9--9--9----9--9--9----9--9--9----9----9---------------------|
E|-x--x--x----x--x--x----x--x--x----x----x---------------------|

e|-------------------------------------------------------------|
B|-------------------------------------------------------------|
G|-9---------------------------9---9---9---9---9---9-----------|
D|-11--------------------------11--11--B11-B11-B11-11----------|
A|-------------------------------------------------------------|
E|-------------------------------------------------------------|

e|-------------------------------------------------------------|
B|-------------------------------------------------------------|
G|-9---9-----------------------11--11--11--9-------------------|
D|-11--11----------------------B11-B11-B11-11------------------|
A|-------------------------------------------------------------|
E|-------------------------------------------------------------|

e|-------------------------------------------------------------|
B|-------------------------------------------------------------|
G|-9---------------------------9---9---9---9---9---9-----------|
D|-11--------------------------11--11--B11-B11-B11-11----------|
A|-------------------------------------------------------------|
E|-------------------------------------------------------------|

e|-------------------------------------------------------------|
B|-------------------------------------------------------------|
G|-9---9---11--11--11--11--------------------------------------|
D|-11--11--B11-B11-B11-B11-------------------------------------|
A|-------------------------------------------------------------|
E|-------------------------------------------------------------|

   I had to hold you,               Had to
e|-x--x--x----x--x--x----x--x--x----x----x---------------------|
B|-14-14-14---14-14-14---14-14-14---14---14--------------------|
G|-14-14-14---14-14-14---14-14-14---14---14--------------------|
D|-14-14-14---14-14-14---14-14-14---14---14--------------------|
A|-12-12-12---12-12-12---12-12-12---11---11--------------------|
E|-x--x--x----x--x--x----x--x--x----x----x---------------------|

   hold you in a headlock,          I had to
e|-x--x--x----x--x--x----x--x--x----x----x---------------------|
B|-14-14-14---14-14-14---14-14-14---14---14--------------------|
G|-14-14-14---14-14-14---14-14-14---14---14--------------------|
D|-14-14-14---14-14-14---14-14-14---14---14--------------------|
A|-11-12-12---12-12-12---12-12-12---11---11--------------------|
E|-x--x--x----x--x--x----x--x--x----x----x---------------------|

   force you into wedlock,          Thats how
e|-x--9--9----9--9--9----9--9--9----9----9---------------------|
B|-14-10-10---10-10-10---10-10-10---9----9---------------------|
G|-14-11-11---11-11-11---11-11-11---11---11--------------------|
D|-14-11-11---11-11-11---11-11-11---11---11--------------------|
A|-11-9--9----9--9--9----9--9--9----9----9---------------------|
E|-x--x--x----x--x--x----x--x--x----x----x---------------------|

   I am.                            Im dyed in the
e|-9--9--9----9--9--9----9--9--9----9----9---------------------|
B|-9--10-10---10-10-10---10-10-10---9----9---------------------|
G|-11-11-11---11-11-11---11-11-11---11---11--------------------|
D|-11-11-11---11-11-11---11-11-11---11---11--------------------|
A|-9--9--9----9--9--9----9--9--9----9----9---------------------|
E|-x--x--x----x--x--x----x--x--x----x----x---------------------|

   Wool
e|-9--7--7----7--7--7----7--7--7----7--7--7--------------------|
B|-9--7--7----7--7--7----7--7--7----7--7--7--------------------|
G|-11-7--7----7--7--7----7--7--7----7--7--7--------------------|
D|-11-9--9----9--9--9----9--9--9----9--9--9--------------------|
A|-9--9--9----9--9--9----9--9--9----9--9--9--------------------|
E|-x--7--7----7--7--7----7--7--7----7--7--7--------------------|

                                    Im dyed in the
e|-7--10-10---10-10-10---10-10-10---10-10-10-------------------|
B|-7--10-10---10-10-10---10-10-10---10-10-10-------------------|
G|-7--11-11---11-11-11---11-11-11---11-11-11-------------------|
D|-9--12-12---12-12-12---12-12-12---12-12-12-------------------|
A|-9--12-12---12-12-12---12-12-12---12-12-12-------------------|
E|-7--10-10---10-10-10---10-10-10---10-10-10-------------------|

   wool
e|-10-7--7----7--7--7----7--7--7----7--7--7--------------------|
B|-10-7--7----7--7--7----7--7--7----7--7--7--------------------|
G|-11-7--7----7--7--7----7--7--7----7--7--7--------------------|
D|-12-9--9----9--9--9----9--9--9----9--9--9--------------------|
A|-12-9--9----9--9--9----9--9--9----9--9--9--------------------|
E|-10-7--7----7--7--7----7--7--7----7--7--7--------------------|

e|-7--10-10---10-10-10---9--9--9----9--9--9--------------------|
B|-7--10-10---10-10-10---9--9--9----9--9--9--------------------|
G|-7--11-11---11-11-11---9--9--9----9--9--9--------------------|
D|-9--12-12---12-12-12---11-11-11---11-11-11-------------------|
A|-9--12-12---12-12-12---11-11-11---11-11-11-------------------|
E|-7--10-10---10-10-10---9--9--9----9--9--9--------------------|

 And then back to the main riff. You should be easily able to work out the rest of the 
part very soon. Im also unsure on the rest of the lyrics

| B  bend
| /  slide up
| \  slide down
| h  hammer-on
| p  pull-off
| ~  vibrato
| +  harmonic
| x  Mute note
===============================================================================
            
Hard to play? Try these video lessons and learn fast. | Correct




comments powered by Disqus
↑ Back to top | Tablatures and chords are parodies/interpretations of the original songs. You may use it for private study, scholarship, research or language learning purposes only