>
 >
You Are Not

You Are Not Guitar Tabs

Young Guns - You Are Not chords, tabs, tablatures, lyrics

Guitar lessons | Add/correct | Request | Top 50 tabs Artists:  A B C D E F G H I J K L M N O P Q R S T U V W X Y Z 0-9

You Are Not Guitar Tabs – Young Guns

CD, Sheet music, Poster

Do you like You Are Not? Share with your friends now
ChordsTabsUkulele
----------------------------------------------------------------------------
----------------------------------------------------------------------------

Tuning: Drop B (B,F#,B,E,G#,Db)


Intro:

Db|-----------------------------------------------------------------|
G#|-----------------------------------------------------------------|
 E|-----------13-10-10------13-10-----------------------------------|
 B|---8-10-11----------8-10-------13-15-10-11-13-15-11-10-8---------|
F#|-----------------------------------------------------------------|
 B|-----------------------------------------------------------------|

Db|-------------------------------------------------------------|
G#|-------------------------------------------------------------|
 E|-----------13-10-10------13-10-------------------------------|
 B|---8-10-11----------8-10-------13-15-10-11-13-15-18-15-------|
F#|-------------------------------------------------------------|
 B|-------------------------------------------------------------|


Verse 1:

Db|-------------------------------------------------------|
G#|-------------------------------------------------------|
 E|--3-3-3-3-3----6-6-6-6-6---------------8-8-8-8-8-------|
 B|--3-3-3-3-3----6-6-6-6-6---6-6-6-6-6---8-8-8-8-8-------|x3
F#|--1-1-1-1-1----4-4-4-4-4---6-6-6-6-6---6-6-6-6-6-------|
 B|---------------------------6-6-6-6-6-------------------|

Db|-----------------------------------------------------------|
G#|-----------------------------------------------------------|
 E|--3-3-3-3-3----6-6-6-6-6-----------------------------------|
 B|--3-3-3-3-3----6-6-6-6-6---6-6-6-6-6-6-6-6-6-6-6-6-6-6-6-6-|
F#|--1-1-1-1-1----4-4-4-4-4---6-6-6-6-6-6-6-6-6-6-6-6-6-6-6-6-|
 B|---------------------------6-6-6-6-6-6-6-6-6-6-6-6-6-6-6-6-|


Chorus:

Db|----------------------------------------------|
G#|----------------------------------------------|
 E|-------6-6-6-6-6-6----------------------------|
 B|--4-4--6-6-6-6-6-6--8-8--6-6-6-6-6-6----------|3x
F#|--4-4--4-4-4-4-4-4--8-8--6-6-6-6-6-6----------|
 B|--4-4---------------8-8--6-6-6-6-6-6----------|

Db|------------------------------|
G#|------------------------------|
 E|-------6-6-6-6-6-6------------|
 B|--4-4--6-6-6-6-6-6--8-8---6---|
F#|--4-4--4-4-4-4-4-4--8-8---6---|
 B|--4-4---------------8-8---6---|


Post-Chorus:

Db|-----------------------------------------------------------------|
G#|-----------------------------------------------------------------|
 E|-----------13-10-10------13-10-----------------------------------|
 B|---8-10-11----------8-10-------13-15-10-11-13-15-11-10-8---------|
F#|-----------------------------------------------------------------|
 B|-----------------------------------------------------------------|


Verse 2:

Db|-------------------------------------------------------|
G#|-------------------------------------------------------|
 E|--3-3-3-3-3----6-6-6-6-6---------------8-8-8-8-8-------|
 B|--3-3-3-3-3----6-6-6-6-6---6-6-6-6-6---8-8-8-8-8-------|x4
F#|--1-1-1-1-1----4-4-4-4-4---6-6-6-6-6---6-6-6-6-6-------|
 B|---------------------------6-6-6-6-6-------------------|


Chorus:

Db|--------------------------------------------|
G#|--------------------------------------------|
 E|-------6-6-6-6-6-6--------------------------|
 B|--4-4--6-6-6-6-6-6--8-8--6-6-6-6-6-6--------|3x
F#|--4-4--4-4-4-4-4-4--8-8--6-6-6-6-6-6--------|
 B|--4-4---------------8-8--6-6-6-6-6-6--------|

Db|------------------------------|
G#|------------------------------|
 E|-------6-6-6-6-6-6------------|
 B|--4-4--6-6-6-6-6-6--8-8---6---|
F#|--4-4--4-4-4-4-4-4--8-8---6---|
 B|--4-4---------------8-8---6---|


Bridge:

Db|----------------------------------------------------------|
G#|--7--------------6--------------4----6---7---9---11-------|
 E|----------------------------------------------------------|
 B|----------------------------------------------------------|x2
F#|----------------------------------------------------------|
 B|----------------------------------------------------------|


Chorus:

Db|------------------------------------------------|
G#|------------------------------------------------|
 E|-------6-6-6-6-6-6------------------------------|
 B|--4-4--6-6-6-6-6-6--8-8--6-6-6-6-6-6------------|3x
F#|--4-4--4-4-4-4-4-4--8-8--6-6-6-6-6-6------------|
 B|--4-4---------------8-8--6-6-6-6-6-6------------|

Db|------------------------------|
G#|------------------------------|
 E|-------6-6-6-6-6-6------------|
 B|--4-4--6-6-6-6-6-6--8-8---6---|
F#|--4-4--4-4-4-4-4-4--8-8---6---|
 B|--4-4---------------8-8---6---|


Outro: Two guitars


Guitar 1:
Db|----------------------------------------------|
G#|----------------------------------------------|
 E|-------6-6-6-6-6-6----------------------------|
 B|--4-4--6-6-6-6-6-6--8-8--6-6-6-6-6-6----------|4x
F#|--4-4--4-4-4-4-4-4--8-8--6-6-6-6-6-6----------|
 B|--4-4---------------8-8--6-6-6-6-6-6----------|

Db|--------------|
G#|--------------|
 E|------6-------|
 B|------6-------|
F#|------4-------|
 B|--------------|

Guitar 2:

Db|-------------------------------------------------------------|
G#|-------------------------------------------------------------|
 E|-----------13-10-10------13-10-------------------------------|
 B|---8-10-11----------8-10-------13-15-10-11-13-15-11-10-8-----|
F#|-------------------------------------------------------------|
 B|-------------------------------------------------------------|
                                                                        x2
Db|-------------------------------------------------------------|
G#|-------------------------------------------------------------|
 E|-----------13-10-10------13-10-------------------------------|
 B|---8-10-11----------8-10-------13-15-10-11-13-15-18-15-------|
F#|-------------------------------------------------------------|
 B|-------------------------------------------------------------|


************************************

| /   slide up
| \   slide down
| h   hammer-on
| p   pull-off
| ~   vibrato
| +   harmonic
| x   Mute note
| b   Bend
| pb  Pre-bend
| br  Bend release
| pbr Pre-bend release
| brb Bend release bend

************************************





Comments


Popular Young Guns tabs & chords
Bones 2 Bass Tabs
Bones Chords
Headlights Chords
Learn My Lesson Chords
Bones Drum Tabs
Bones 2 Tabs
Daughter Of The Sea Intro Tabs
Beneath The Waves Ukulele
Bones Ukulele
Winter Kiss Ukulele


Song lyrics



↑ Back to top | Tablatures and chords are parodies/interpretations of the original songs. You may use it for private study, scholarship, research or language learning purposes only
© 2014 AZChords.com Contact us | Privacy policy | DMCA | Add/correct tabs | Request tabs | Top 50 tabs