» » »

Young Guns, Winter Kiss Tabs (ver.1)

Artists:  A B C D E F G H I J K L M N O P Q R S T U V W X Y Z # 

Winter Kiss Tabs (ver.1)

Young Guns Tabs
 Rating:
4/5 (10 votes)
Winter Kiss lessons Tabs too difficult? Try these video lessons and learn fast
                

                                                    Young Guns - Winter Kiss
                                                    =========================

   Hey guys, I heard some people wanted this song tabbed out so i decided to give 
it a try, it's all done by ear and it's my first tab so any tips are welcome, thanks a bunch :)





Verse

|--------------------------------------------------------|
|--------------------------------------------------------|
|-xx-5555-5555--4444--7777-------------------------------|
|-xx-5555-5555--4444--7777--6666--6666---3-33--5-55-6----| x2
|-xx-3333-3333--2222--5555--6666--6666---3-33--5-55-6----|
|---------------------------6666--6666---3-33--5-55-6----|


Chorus
|---------------------------------------------------------------------|  
|---------------------------------------------------------------------| 
|--55-55--------------------------------------------------------------|
|--55-55\55-5--66-6-9-99-99-----------33-33-3-33-33-3\-55-55-5-66-66-6| x2
|--33-33\55-5--66-6-9-99-99-----------33-33-3-33-33-3\-55-55-5-66-66-6|
|-------\55-5--66-6-9-99-99-4444/7777-33-33-3-33-33-3\-55-55-5-66-66-6|

The Last time round, at the last bit play 2’s, same stumming pattern btw

|---------------------------|
|---------------------------|
|-777-----666-----999\10----|
|-777-000-666-000-999\10----| x2
|-555-000-444-000-777\8-----|
|-----000-----000-----------|


Verse Listen to how they play it

Pre Chorus

|--------------------------------------------------------|
|--------------------------------------------------------|
|-------------------------------------------3~-----------|
|----66666-x66----x33333-------66666-x66-3~-3~-----------| 
|----66666-x66----x33333-------66666-x66-3~-1~-----------|
|----66666-x66----x33333--3-5b-66666-x66-3~--------------|

Chorus 

|---------------------------------------------------------------------|  
|---------------------------------------------------------------------| 
|--55-55--------------------------------------------------------------|
|--55-55\55-5--66-6-9-99-99-----------33-33-3-33-33-3\-55-55-5-66-66-6|
|--33-33\55-5--66-6-9-99-99-----------33-33-3-33-33-3\-55-55-5-66-66-6|
|-------\55-5--66-6-9-99-99-4444/7777-33-33-3-33-33-3\-55-55-5-66-66-6|

|-----------------------------------------------------------------------|  
|-----------------------------------------------------------------------|
|--55-55----------------------------------------------------------------|
|--55-55\55-5--66-6-9-99-99-----------33-33-3-33-33-3\-55-55-5-22-22-2-0|
|--33-33\55-5--66-6-9-99-99-----------33-33-3-33-33-3\-55-55-5-22-22-2-0|
|-------\55-5--66-6-9-99-99-4444/7777-33-33-3-33-33-3\-55-55-5-22-22-2-0|


Post-Chorus 

|----------------------------------------------------------| x2
|----------------------------------------------------------|The Last time
|----------------------------------------------------------|play 9 as a 
|-10-------------------------------9-----------------------|chord and don’t  
|-10-------------------------------9-----------------------|palm mute :D
|-10-1010101010101010101010101010--9-99999999999999--------|
     * * * * * * * * * * * * * *     **************         


Bridge

|------------------------------------------------------------|
|------------------------------------------------------------|
|------------------------------------------------------------|
|-3-----6-----\10-----8-------3-----6------8-----10----11----| 
|-3-x16-6-x16-\10-x16-8-x16---3-x16-6-x16--8-x16-10-x8-11-x8-|
|-3-----6-----\10-----8-------3-----6------8-----10----11----|
                 

|-----------------------------------|
|-----------------------------------|
|-----------------------------------|
|-101010-555-666--555-66-88-9-99-99-| 
|-101010-555-666--555-66-88-9-99-99-| continue with normal chorus from
|-101010-555-666--555-66-88-9-99-99-| the 9s


|---------------------------------------------------------------------|  
|---------------------------------------------------------------------| 
|--55-55--------------------------------------------------------------|
|--55-55\55-5--66-6-9-99-99-----------33-33-3-33-33-3\-55-55-5-66-66-6| x2
|--33-33\55-5--66-6-9-99-99-----------33-33-3-33-33-3\-55-55-5-66-66-6|
|-------\55-5--66-6-9-99-99-4444/7777-33-33-3-33-33-3\-55-55-5-66-66-6|


|--------------------------------------------------|  
|--------------------------------------------------| 
|-777-----666-----999\10-777-----666-----121212\14-| x2 Let the last octave 
|-xxx-000-xxx-000-xxx\x--xxx-000-xxx-000-x-x-x-\x--|    ring the second time 
|-555-000-444-000-777\8--555-000-444-000-101010\12-|    round then…    
|-----000-----000------------000-----000-----------|

|---|
|---|
|-0-| 
|-0-|
|-0-|
            
Submit corrections

comments powered by Disqus
↑ Back to top | Young Guns Tabs for Winter Kiss. Lyrics for acoustic guitar and electric guitar. Tablatures and chords are parodies/interpretations of the original songs. You may use it for private study, scholarship, research or language learning purposes only