>
 >
Towers

Towers Guitar Tabs

Young Guns - Towers chords, tabs, tablatures, lyrics

Guitar lessons | Add/correct | Request | Top 50 tabs Artists:  A B C D E F G H I J K L M N O P Q R S T U V W X Y Z 0-9

Towers Guitar Tabs – Young Guns

CD, Sheet music, Poster

Do you like Towers? Share with your friends now
Tabs
----------------------------------------------------------------------------
---------------------------------------------------------------------------

Tuning: drop B(BF#BEG#Db)

Intro:muted

Db|--------------------------------|
G#|--------------------------------|
 E|--------------------------------|
 B|--------------------------------|x3
F#|----3-5-3-3-3h5-5-5-5-5-5-------|
 B|--------------------------------|

Verse 1:

Db|-----------------|
G#|-----------------|
 E|-------7---------|
 B|-------7---------|
F#|-------5---------|
 B|-----------------|

Pre Chorus:

Db|-----------------------------------------------------------|
G#|-----------------------------------------------------------|
 E|-----------------------------------------------------------|
 B|-----5-5-xx-xx-5-5-xx-xx-xx-xx--5-5-xx-xx-5-5-xx-xx-xx-xx--|
F#|-----5-5-xx-xx-5-5-xx-xx-xx-xx--5-5-xx-xx-5-5-xx-xx-xx-xx--|
 B|-----5-5-xx-xx-5-5-xx-xx-xx-xx--5-5-xx-xx-5-5-xx-xx-xx-xx--|

Chorus:

Db|---------------------------------------|
G#|---------------------------------------|
 E|-7---5-3-----7---5-3------------5----7-|you'll figure out
 B|-7-3-5-3-----7-3-5-3-----0-3--0-3----7-|the strumming pattern
F#|-5-3-3-1-----5-3-3-1-----0-3--0-3----5-|
 B|---3-----------3---------0-3--0--------|

Verse 2:

Db|-----------------------------|
G#|-----------------------------|
 E|--7-7---5-5-5-5-5------------|
 B|--7-7-3-5-5-5-5-5-5-3--------|x7
F#|--5-5-3-3-3-3-3-3-5-3--------|
 B|------3-----------5-3--------|

Pre-Chorus:

Db|----------------------------------------------------------------|
G#|----------------------------------------------------------------|
 E|----------------------------------------------------------------|
 B|-----5-5-xx-xx-5-5-xx-xx-xx-xx--5-5-xx-xx-5-5-xx-xx-xx-xx-------|
F#|-----5-5-xx-xx-5-5-xx-xx-xx-xx--5-5-xx-xx-5-5-xx-xx-xx-xx-------|
 B|-----5-5-xx-xx-5-5-xx-xx-xx-xx--5-5-xx-xx-5-5-xx-xx-xx-xx-------|

Chorus:

Db|-----------------------------------------------|
G#|-----------------------------------------------|
 E|-7---5-3-----7---5-3------------5----7---------|
 B|-7-3-5-3-----7-3-5-3-----0-3--0-3----7---------|
F#|-5-3-3-1-----5-3-3-1-----0-3--0-3----5---------|
 B|---3-----------3---------0-3--0----------------|

Bridge:

Db|-------------------|
G#|-------------------|
 E|-------------------|
 B|-------------------|x17
F#|--5p3h5------------|
 B|-------------------|

Db|--------------------|
G#|--------------------|
 E|--10-9-7-9----------|
 B|--------------------|
F#|--------------------|
 B|--------------------|

Chorus:

Db|-----------------------|
G#|-----------------------|
 E|-7---5-3-----7---5-3---|
 B|-7-3-5-3-----7-3-5-3---|
F#|-5-3-3-1-----5-3-3-1---|
 B|---3-----------3-------|

Outro:

Db|------------------------------------------------------|
G#|------------------------------------------------------|
 E|------------------------------------------------------|
 B|---12-0-12-0-12-0-12/13--0-12-0-12-0-12-0-12-10-13-12-|
F#|---12-0-12-0-12-0-12/13--0-12-0-12-0-12-0-12-10-13-12-|
 B|---12-0-12-0-12-0-12/13--0-12-0-12-0-12-0-12-10-13-12-|


************************************

| /   slide up
| \   slide down
| h   hammer-on
| p   pull-off
| ~   vibrato
| +   harmonic
| x   Mute note
| b   Bend
| pb  Pre-bend
| br  Bend release
| pbr Pre-bend release
| brb Bend release bend

************************************





Comments


Popular Young Guns tabs & chords
Bones 2 Bass Tabs
Bones Chords
Crystal Clear Chords
In The Night Chords
D.O.A Tabs
Dearly Departed Tabs
Sons Of Apathy Tabs
Weight Of The World Tabs
A Hymn For All Ive Lost Ukulele
Bones Ukulele


Song lyrics



↑ Back to top | Tablatures and chords are parodies/interpretations of the original songs. You may use it for private study, scholarship, research or language learning purposes only
© 2014 AZChords.com Contact us | Privacy policy | DMCA | Add/correct tabs | Request tabs | Top 50 tabs