>
 >
Stitches

Stitches Guitar Tabs

Young Guns - Stitches chords, tabs, tablatures, lyrics

Guitar lessons | Add/correct | Request | Top 50 tabs Artists:  A B C D E F G H I J K L M N O P Q R S T U V W X Y Z 0-9

Stitches Guitar Tabs – Young Guns

CD, Sheet music, Poster

Do you like Stitches? Share with your friends now
Bass TabsChordsTabsTabs v2Ukulele
Young Guns - Stitches

I've looked at some of the tabs for this and they're all meh so heres my take. Also 
LISTEN to the song for bits


Tuning
Guitar: B F# B E G# C#
Bass  : B F# B E

Remember: The song wont sound right if its not tuned down properly


Intro/Verse:

Use some volume swelling techniques on this bit

|-14-------------|
|----------------|
|----------------|
|----------------|
|----------------|
|----------------|

Bass
|----------------|----------------|
|----------------|----------------|
|----------------|----------------|
|-9-9-9-9-9-9-9-9|-9-9-9-9-9-9-9-9|---------------------------
                                       Repeat sequence twice
|----------------|----------------|---------------------------
|----------------|----------------|
|----------------|----------------|
|-5-5-5-5-5-5-5-5|-5-5-5-5-5-5-5-5|

If you listen to the song you will hear some guitar slides that sound quite synthed up. 
Let this ring out and slide from fret to fret.

|-22-------------|-14-------------|
|----------------|----------------|
|----------------|----------------|
|----------------|----------------|
|----------------|----------------|
|----------------|----------------|

Pre Chorus:

|---------------|--------------|
|---------------|--------------|
|---------------|--------------|
|-7-------------|-5------------|

|-22-------------|-21-------------|-19-------------|
|----------------|----------------|----------------|
|----------------|----------------|----------------|
|----------------|----------------|----------------|
|----------------|----------------|----------------|
|----------------|----------------|----------------|

Chorus:
Guitar two comes in on this part.

Bass:

|-----------------|-----------------|
|-----------------|-----------------|
|-----------------|-----------------|
|-9-9-9-9-9-9-9-9-|-2-2-2-2-2-2-2-2-|

|-----------------|-----------------|
|-----------------|-----------------|
|-----------------|-----------------|
|-0-0-0-0-0-0-0-0-|-5-5-5-5-5-5-5-5-|


Guitar 2
|-----------------|-----------------|
|-----------------|-----------------|
|-----------------|-----------------|
|-----------------|-----------------|
|-9-9-9-9-9-9-9-9-|-2-2-2-2-2-2-2-2-|
|-9-9-9-9-9-9-9-9-|-2-2-2-2-2-2-2-2-|------------------------
                                       Repeat sequence twice
|-----------------|-----------------|------------------------
|-----------------|-----------------|
|-----------------|-----------------|
|-----------------|-----------------|
|-0-0-0-0-0-0-0-0-|-5-5-5-5-5-5-5-5-|
|-0-0-0-0-0-0-0-0-|-5-5-5-5-5-5-5-5-|

Guitar 1

|---------------------|-------------------------|
|---------------------|-------------------------|
|---------------------|---11-11-11-11-11-11-11--|
|-12-12-12-9-9-9------|-------------------------|
|----------------9-10-|-9-----------------------|
|---------------------|-------------------------|

|--------------------|-----------------|
|--------------------|-----------------|
|-11-11-11-9-9-9-9---|-----------------|
|------------------9-|-9-9-9-9-9-9-9-9-|
|--------------------|-----------------|
|--------------------|-----------------|

|---------------------|-------------------------|
|---------------------|-------------------------|
|---------------------|---11-11-11-11-11-11-11--|
|-12-12-12-9-9-9------|-------------------------|
|----------------9-10-|-9-----------------------|
|---------------------|-------------------------|

|---------------------|-------------------------|
|------------------12-|-12-12-12-12-12-12-12-12-|
|-11-11-11-9-9-9-9----|-------------------------|
|---------------------|-------------------------|
|---------------------|-------------------------|
|---------------------|-------------------------|

Verse

Guitar 1

|---------------|
|-12------------|
|---------------|
|---------------|
|---------------|
|---------------|

Bass
|----------------|----------------|
|----------------|----------------|
|----------------|----------------|
|-9-9-9-9-9-9-9-9|-9-9-9-9-9-9-9-9|

|----------------|----------------|
|----------------|----------------|
|----------------|----------------|
|-5-5-5-5-5-5-5-5|-5-5-5-5-5-5-5-5|

Guitar 1 & 2: Palm Muted

|-----------------|-----------------|
|-----------------|-----------------|
|-----------------|-----------------|
|-----------------|-----------------|
|-7-7-7-7-7-7-7-7-|-7-7-7-7-7-7-7-7-|
|-7-7-7-7-7-7-7-7-|-7-7-7-7-7-7-7-7-|
                                        Repeat sequence twice
|-----------------|-----------------|
|-----------------|-----------------|
|-----------------|-----------------|
|-----------------|-----------------|
|-5-5-5-5-5-5-5-5-|-5-5-5-5-5-5-5-5-|
|-5-5-5-5-5-5-5-5-|-5-5-5-5-5-5-5-5-|

Bass

|-----------------|-----------------|
|-----------------|-----------------|
|-----------------|-----------------|
|-7-7-7-7-7-7-7-7-|-7-7-7-7-7-7-7-7-|
                                        Repeat sequence twice
|-----------------|-----------------|
|-----------------|-----------------|
|-----------------|-----------------|
|-5-5-5-5-5-5-5-5-|-5-5-5-5-5-5-5-5-|

Chorus:

Bass:

|-----------------|-----------------|
|-----------------|-----------------|
|-----------------|-----------------|
|-9-9-9-9-9-9-9-9-|-2-2-2-2-2-2-2-2-|

|-----------------|-----------------|
|-----------------|-----------------|
|-----------------|-----------------|
|-0-0-0-0-0-0-0-0-|-5-5-5-5-5-5-5-5-|


Guitar 2
|-----------------|-----------------|
|-----------------|-----------------|
|-----------------|-----------------|
|-----------------|-----------------|
|-9-9-9-9-9-9-9-9-|-2-2-2-2-2-2-2-2-|
|-9-9-9-9-9-9-9-9-|-2-2-2-2-2-2-2-2-|

|-----------------|-----------------|
|-----------------|-----------------|
|-----------------|-----------------|
|-----------------|-----------------|
|-0-0-0-0-0-0-0-0-|-5-5-5-5-5-5-5-5-|
|-0-0-0-0-0-0-0-0-|-5-5-5-5-5-5-5-5-|

Guitar 1

|---------------------|-------------------------|
|---------------------|-------------------------|
|---------------------|---11-11-11-11-11-11-11--|
|-12-12-12-9-9-9------|-------------------------|
|----------------9-10-|-9-----------------------|
|---------------------|-------------------------|

|--------------------|-----------------|
|--------------------|-----------------|
|-11-11-11-9-9-9-9---|-----------------|
|------------------9-|-9-9-9-9-9-9-9-9-|
|--------------------|-----------------|
|--------------------|-----------------|

|---------------------|-------------------------|
|---------------------|-------------------------|
|---------------------|---11-11-11-11-11-11-11--|
|-12-12-12-9-9-9------|-------------------------|
|----------------9-10-|-9-----------------------|
|---------------------|-------------------------|

|---------------------|-------------------------|
|------------------12-|-12-12-12-12-12-12-12-12-|
|-11-11-11-9-9-9-9----|-------------------------|
|---------------------|-------------------------|
|---------------------|-------------------------|
|---------------------|-------------------------|

|---------------------|-------------------------|
|---------------------|-------------------------|
|---------------------|---11-11-11-11-11-11-11--|
|-12-12-12-9-9-9------|-------------------------|
|----------------9-10-|-9-----------------------|
|---------------------|-------------------------|

|--------------------------|-------------------------|
|-10-10-10-----------------|-------------------------|
|-----------12-12-12-12-11-|-11-11-11-11-11-11-11-11-|
|--------------------------|-------------------------|
|--------------------------|-------------------------|
|--------------------------|-------------------------|

Interlude/Solo

Bass:

|-----------------|-----------------|
|-----------------|-----------------|
|-----------------|-----------------|
|-9-9-9-9-9-9-9-9-|-9-9-9-9-9-9-9-9-|

|-----------------|-----------------|
|-----------------|-----------------|
|-----------------|-----------------|
|-5-5-5-5-5-5-5-5-|-5-5-5-5-5-5-5-5-|

|-----------------|-----------------|
|-----------------|-----------------|
|-----------------|-----------------|
|-9-9-9-9-9-9-9-9-|-9-9-9-9-9-9-9-9-|

|-----------------|-----------------|
|-----------------|-----------------|
|-----------------|-----------------|
|-7-7-7-7-7-7-7-7-|-7-7-7-7-7-7-7-7-|

|-----------------|-----------------|
|-----------------|-----------------|
|-----------------|-----------------|
|-5-5-5-5-5-5-5-5-|-5-5-5-5-5-5-5-5-|

|-----------------|-----------------|
|-----------------|-----------------|
|-----------------|-----------------|
|-9-9-9-9-9-9-9-9-|-9-9-9-9-9-9-9-9-|

|-----------------|-----------------|
|-----------------|-----------------|
|-----------------|-----------------|
|-5-5-5-5-5-5-5-5-|-5-5-5-5-5-5-5-5-|

|-----------------|-----------------|
|-----------------|-----------------|
|-----------------|-----------------|
|-7-7-7-7-7-7-7-7-|-7-7-7-7-7-7-7-7-|

Guitar 2:

|-----------------|-----------------|
|-----------------|-----------------|
|-----------------|-----------------|
|-----------------|-----------------|
|-9-9-9-9-9-9-9-9-|-9-9-9-9-9-9-9-9-|
|-9-9-9-9-9-9-9-9-|-9-9-9-9-9-9-9-9-|

|-----------------|-----------------|
|-----------------|-----------------|
|-----------------|-----------------|
|-----------------|-----------------|
|-5-5-5-5-5-5-5-5-|-5-5-5-5-5-5-5-5-|
|-5-5-5-5-5-5-5-5-|-5-5-5-5-5-5-5-5-|

|-----------------|-----------------|
|-----------------|-----------------|
|-----------------|-----------------|
|-----------------|-----------------|
|-9-9-9-9-9-9-9-9-|-9-9-9-9-9-9-9-9-|
|-9-9-9-9-9-9-9-9-|-9-9-9-9-9-9-9-9-|

|-----------------|-----------------|
|-----------------|-----------------|
|-----------------|-----------------|
|-----------------|-----------------|
|-7-7-7-7-7-7-7-7-|-7-7-7-7-7-7-7-7-|
|-7-7-7-7-7-7-7-7-|-7-7-7-7-7-7-7-7-|

|-----------------|-----------------|
|-----------------|-----------------|
|-----------------|-----------------|
|-----------------|-----------------|
|-5-5-5-5-5-5-5-5-|-5-5-5-5-5-5-5-5-|
|-5-5-5-5-5-5-5-5-|-5-5-5-5-5-5-5-5-|

|-----------------|-----------------|
|-----------------|-----------------|
|-----------------|-----------------|
|-----------------|-----------------|
|-9-9-9-9-9-9-9-9-|-9-9-9-9-9-9-9-9-|
|-9-9-9-9-9-9-9-9-|-9-9-9-9-9-9-9-9-|

|-----------------|-----------------|
|-----------------|-----------------|
|-----------------|-----------------|
|-----------------|-----------------|
|-5-5-5-5-5-5-5-5-|-5-5-5-5-5-5-5-5-|
|-5-5-5-5-5-5-5-5-|-5-5-5-5-5-5-5-5-|

|-----------------|-----------------|
|-----------------|-----------------|
|-----------------|-----------------|
|-----------------|-----------------|
|-7-7-7-7-7-7-7-7-|-7-7-7-7-7-7-7-7-|
|-7-7-7-7-7-7-7-7-|-7-7-7-7-7-7-7-7-|

Guitar 1

|-14-------14-------|-17-------17-------|-19----------|
|-------------------|-------------------|-------------|
|----16-16----16-16-|----16-16----16-16-|----16-16-16-|
|-------------------|-------------------|-------------|
|-------------------|-------------------|-------------|
|-------------------|-------------------|-------------|

|-14-------14-------|-17-------17-------|-19----------|
|-------------------|-------------------|-------------|
|----16-16----16-16-|----16-16----16-16-|----16-16-16-|
|-------------------|-------------------|-------------|
|-------------------|-------------------|-------------|
|-------------------|-------------------|-------------|

|-------------------------------------------------|
|-19-15-------19-15-19-15-------19-15-19-15-------|
|-------18-16-------------18-16-------------18-16-|
|-------------------------------------------------|
|-------------------------------------------------|
|-------------------------------------------------|

|-------------------------------------------------|
|-19-15-------19-15-19-15-------19-15-19-15-------|
|-------18-16-------------18-16-------------18-16-|
|-------------------------------------------------|
|-------------------------------------------------|
|-------------------------------------------------|

|-17-14-------17-14-17-14-------17-14-17-14-------|
|-------15-14-------------15-14-------------15-14-|
|-------------------------------------------------|
|-------------------------------------------------|
|-------------------------------------------------|
|-------------------------------------------------|

|-19-17-------19-17-19-17-------21-17-21-17-------|
|-------19-17-------------19-17-------------19-17-|
|-------------------------------------------------|
|-------------------------------------------------|
|-------------------------------------------------|
|-------------------------------------------------|

|-------------------------|-----------------------|
|-15----14----12----------|-12--------------------|
|----11----11----11-14-11-|----11-9----7---7------|
|-------------------------|-----------------------|
|-------------------------|-----------------------|
|-------------------------|-----------------------|

|-----------------------------|--------------------------|
|---------------9----10----10-|----15----14-----12-------|
|-7-9-9-9-9-------11----11----|-11----11----11-----11-14-|
|-----------9-9---------------|--------------------------|
|-----------------------------|--------------------------|
|-----------------------------|--------------------------|

|-------------------|-10-9------10-9-10-9------10-9-10-9------|
|----10-------------|------10-7-----------10-7-----------10-7-|
|-11----9-----7---7-|-----------------------------------------|
|-------------------|-----------------------------------------|
|-------------------|-----------------------------------------|
|-------------------|-----------------------------------------|

|-12-9------12-9-12-9------12-9-12-9----------|--------------------|
|------10-7-----------10-7-----------10-7--12-|-7--8-7-8-7-8-7-8-7-|
|---------------------------------------------|--------------------|
|---------------------------------------------|--------------------|
|---------------------------------------------|--------------------|
|---------------------------------------------|--------------------|

|-----------------|
|-8-7-8-7-8-7-8-7-|
|-----------------|
|-----------------|
|-----------------|
|-----------------|

Then just repeat the chorus ;D
Have fun guys





Comments


Popular Young Guns tabs & chords
Dearly Departed Bass Tabs
Crystal Clear Chords
Dearly Departed Chords
Learn My Lesson Chords
Bones 2 Tabs
Crystal Clear Tabs
Daughter Of The Sea Intro Tabs
Elements Tabs
Crystal Clear Ukulele
Winter Kiss Ukulele


Song lyrics



↑ Back to top | Tablatures and chords are parodies/interpretations of the original songs. You may use it for private study, scholarship, research or language learning purposes only
© 2014 AZChords.com Contact us | Privacy policy | DMCA | Add/correct tabs | Request tabs | Top 50 tabs