» » »

I Was Born I Have Lived I Will Surely Die Tabs (ver.1)

Artists:  A B C D E F G H I J K L M N O P Q R S T U V W X Y Z # 

I Was Born I Have Lived I Will Surely Die Tabs (ver.1)

Young Guns
Rating:
0/5 (0 votes)

Hard to play? Try these video lessons and learn fast.
                ----------------------------------------------------------------------------
I Was Born, I Have Lived, I Will Surely Die - Young Guns
-----------------------------------------------------------------------------

Tuning: Drop B (B,F#,B,E,G#,Db)

Intro:

Db|------------|
G#|------------|
 E|-----7------|
 B|-----7------|
F#|-----5------|
 B|------------|

Intro and verse 1: Rythm guitar(muted)

   (0:10)                     "I was born, I have lived...
Db|--------------------------------------------------------------------------|
G#|--------------------------------------------------------------------------|
 E|--------------------------------------------------------------------------|
 B|---0-0-0-0---0-0-0-0-----0-0-0-0---0-0-0-0---0-0-0-0---0-0-0--5-5-5-5-----|
F#|---0-0-0-0---0-0-0-0-----0-0-0-0---0-0-0-0---0-0-0-0---0-0-0--5-5-5-5-----|
 B|---0-0-0-0---0-0-0-0-----0-0-0-0---0-0-0-0---0-0-0-0---0-0-0--5-5-5-5-----|

Db|------------------------------|
G#|------------------------------|
 E|------------------------------|
 B|--5-5-5-5--5-5-5-5--5-5-5-----|
F#|--5-5-5-5--5-5-5-5--5-5-5-----|
 B|--5-5-5-5--5-5-5-5--5-5-5-----|

Db|--------------------------------------------------------------------------|
G#|--------------------------------------------------------------------------|
 E|--------------------------------------------------------------------------|
 B|--0-0-0-0-----------------------0-0-0-0--0-0-0-0--0-0-0-------------------|
F#|--0-0-0-0-----------------------0-0-0-0--0-0-0-0--0-0-0-------------------|
 B|--0-0-0-0-0-0-0-0-0-0-0-0-0-0-0-0-0-0-0--0-0-0-0--0-0-0-------------------|

Db|---------------------------------------------------------------------------|
G#|---------------------------------------------------------------------------|
 E|---------------------------------------------------------------------------|
 B|--5-5-5-5-----------------------5-5-5-5--5-5-5-5--5-5-5--------------------|
F#|--5-5-5-5-----------------------5-5-5-5--5-5-5-5--5-5-5--------------------|
 B|--5-5-5-5-5-5-5-5-5-5-5-5-5-5-5-5-5-5-5--5-5-5-5--5-5-5--------------------|


(0:43)"My Eyes...
Db|-------------------------------------|
G#|-------------------------------------|You'll figure out the strumming
 E|-------------------------------------|pattern
 B|---0----------------------5----------|2x
F#|---0----------------------5----------|
 B|---0----------------------5----------|

Intro and verse 1: Lead Guitar

(0:10)
Db|---------------------------------------------------------------|
G#|---------------------------------------------------------------|
 E|---6-6-6/7-7-7-7-7-7-7-7\6-6-6/7-7-7/9-9-9/11-11-11/14-14-14---|
 B|---x-x-x/x-x-x-x-x-x-x-x\x-x-x/x-x-x/x-x-x/x--x--x-/x--x--x----|x10
F#|---4-4-4/5-5-5-5-5-5-5-5\4-4-4/5-5-5/7-7-7/9--9--9-/12-12-12---|
 B|---------------------------------------------------------------|


Pre-Chorus: Rythm guitar

(1:05)"There's no doubt...
Db|-----------------------------------------------------------------------|
G#|-----------------------------------------------------------------------|
 E|-----------------------------------------------------------------------|
 B|-9-----------------------------5------------------------------7--------|
F#|-9-----------------------------5------------------------------7--------|
 B|-9-----------------------------5------------------------------7--------|

Pre-Chorus: Lead Guitar

Db|---19-14---17-14---17---12---------------|
G#|------------------------------14---15----|
 E|-----------------------------------------|
 B|-----------------------------------------|
F#|-----------------------------------------|
 B|-----------------------------------------|


Chorus: Lead Guitar (clean)

   [count each notes as two strums]
Db|---------------------------------------------------------------------------|
G#|---------------------------------------------------------------------------|
 E|--11-11-11-11-11-11-11-11-/12-12-12-12-12-12-12-12-12/14-14-14-14-14-14-14-|
 B|--x--x--x--x--x--x--x--x--/x--x--x--x--x--x--x--x--x-/x--x--x--x--x--x--x--|
F#|--9--9--9--9--9--9--9--9--/10-10-10-10-10-10-10-10-10/12-12-12-12-12-12-12-|
 B|---------------------------------------------------------------------------|

Db|--------------------|
G#|--------------------|
 E|-14\9-9-9-9-9-9-9-9-|
 B|-x-\x-x-x-x-x-x-x-x-|2x
F#|-12\7-7-7-7-7-7-7-7-|
 B|--------------------|

Chorus: Rythm Guitar
(1:27) "Don't run away...
Db|-------------------------------------------------------------------------|
G#|-------------------------------------------------------------------------|
 E|-------------------------------------------------------------------------|
 B|--9-9-9-9------------5-5-5-5-------------0-0-0-0--------7-7-7-7--7-7-7-7-|
F#|--9-9-9-9------------5-5-5-5-------------0-0-0-0--------7-7-7-7--7-7-7-7-|
 B|--9-9-9-9------------5-5-5-5-------------0-0-0-0--------7-7-7-7--7-7-7-7-|


Verse 2: Rythm Guitar

Db|-------------------------------------|
G#|-------------------------------------|You'll figure out the strumming
 E|-------------------------------------|pattern
 B|---0----------------------5----------|
F#|---0----------------------5----------|
 B|---0----------------------5----------|

(this part is muted)
Db|---------------------------------------------------------|
G#|---------------------------------------------------------|
 E|---------------------------------------------------------|
 B|--0-0-0-0-----------------------0-0-0-0--0-0-0-0--0-0-0--|
F#|--0-0-0-0-----------------------0-0-0-0--0-0-0-0--0-0-0--|
 B|--0-0-0-0-0-0-0-0-0-0-0-0-0-0-0-0-0-0-0--0-0-0-0--0-0-0--|
                                                                  x2
Db|---------------------------------------------------------|
G#|---------------------------------------------------------|
 E|---------------------------------------------------------|
 B|--5-5-5-5-----------------------5-5-5-5--5-5-5-5--5-5-5--|
F#|--5-5-5-5-----------------------5-5-5-5--5-5-5-5--5-5-5--|
 B|--5-5-5-5-5-5-5-5-5-5-5-5-5-5-5-5-5-5-5--5-5-5-5--5-5-5--|

Verse 2: Lead Guitar

Db|---------------------------------------------------------------|
G#|---------------------------------------------------------------|
 E|---6-6-6/7-7-7-7-7-7-7-7\6-6-6/7-7-7/9-9-9/11-11-11/14-14-14---|
 B|---x-x-x/x-x-x-x-x-x-x-x\x-x-x/x-x-x/x-x-x/x--x--x-/x--x--x----|x6
F#|---4-4-4/5-5-5-5-5-5-5-5\4-4-4/5-5-5/7-7-7/9--9--9-/12-12-12---|
 B|---------------------------------------------------------------|


Pre-Chorus 2: Rythm Guitar

Db|-----------------------------------------------------------------------|
G#|-----------------------------------------------------------------------|
 E|-----------------------------------------------------------------------|
 B|-9-----------------------------5------------------------------7--------|2x
F#|-9-----------------------------5------------------------------7--------|
 B|-9-----------------------------5------------------------------7--------|

Pre Chorus 2: Lead Guitar

Db|---19-14---17-14---17---12-----------------|
G#|------------------------------14---15--17--|
 E|-------------------------------------------|
 B|-------------------------------------------|2x
F#|-------------------------------------------|
 B|-------------------------------------------|


Chorus: Both guitars

Db|-----------------------------------------|
G#|-----------------------------------------|You'll figure out the strumming
 E|-----------------------------------------|pattern
 B|--9-------------5-------------0-------7--|2x
F#|--9-------------5-------------0-------7--|
 B|--9-------------5-------------0-------7--|

Bridge part 1: Lead Guitar

Db|-------------------------------------------------------------------|
G#|-------------------------------------------------------------------|
 E|---------11-------11------11------11-------7------7------7------7--|
 B|-------9--------9-------9-------9--------5------5------5------5----|
F#|-----9--------9-------9-------9--------5------5------5------5------|
 B|---9--------9-------9-------9--------5------5------5------5--------|

Db|---------------------------------------------------------|
G#|---------------------------------------------------------|
 E|-------2------2------2------2------9------9------9------9|
 B|-----0------0------0------0------7------7------7------7--|
F#|---0------0------0------0------7------7------7------7----|
 B|-0------0------0------0------7------7------7------7------|

Bridge part 2: Both guitars

(3:08)
Db|-----------------------------------------|
G#|-----------------------------------------|You'll figure out the strumming
 E|-----------------------------------------|pattern
 B|--9-------------5-------------0-------7--|
F#|--9-------------5-------------0-------7--|
 B|--9-------------5-------------0-------7--|


Chorus: Rythm Guitar

Db|-----------------------------------------|
G#|-----------------------------------------|You'll figure out the strumming
 E|-----------------------------------------|pattern
 B|--9-------------5-------------0-------7--|2x
F#|--9-------------5-------------0-------7--|
 B|--9-------------5-------------0-------7--|

Chorus: Lead Guitar

Db|---19-14---17-14---17---12-----------------|
G#|------------------------------14---15--14--|
 E|-------------------------------------------|
 B|-------------------------------------------|2x
F#|-------------------------------------------|
 B|-------------------------------------------|


Outro (same as part 1 of the bridge)
            
Hard to play? Try these video lessons and learn fast. | Correct




comments powered by Disqus
↑ Back to top | Tablatures and chords are parodies/interpretations of the original songs. You may use it for private study, scholarship, research or language learning purposes only