» » »

Elements Tabs (ver.1)

Artists:  A B C D E F G H I J K L M N O P Q R S T U V W X Y Z # 

Elements Tabs (ver.1)

Young Guns
Rating:
0/5 (0 votes)

Hard to play? Try these video lessons and learn fast.
                
Tuning:Drop B

Main Riff
Db|---------------------------------------------------------------------------|
G#|---------------------------------------------------------------------------|
E |---------------------------------------------------------------------------|
B |4444-444-4444-777-2222-222-2222--------------------------------------------|
F#|4444-444-4444-777-2222-222-2222--------------------------------------------|
B |4444-444-4444-777-2222-222-2222--------------------------------------------|

Verse
Db|------------------------------------------------------------------------------|
G#|------------------------------------------------------------------------------|
E |--------9---7-----------------------------------------------------------------|
B |4----2--9---7------9----------------------------------------------------------|
F#|4----2--7---5------9----------------------------------------------------------|
B |4----2-------------9----------------------------------------------------------|

Chorus 1
Db|---------------------------------------------------------------------------|
G#|-3---7----5----------------------------------------------------------------|
E |-----------------4---------------------------------------------------------|
B |---------------------------------------------------------------------------|
F#|---------------------------------------------------------------------------|
B |---------------------------------------------------------------------------|

Chorus 2
Db|------------------------------------------------------------------------------|
G#|------------------------------------------------------------------------------|
E |-7----------------------------------------------------------------------------|
B |-7-x8--4-----2----------------------------------------------------------------|
F#|-5-----4-x8--2-x16------------------------------------------------------------|
B |-------4-----2----------------------------------------------------------------|


Middle 8
Db|---------------------------------------------------------------------------|
G#|---------------------------------------------------------------------------|
E |---------------------------------------------------------------------------|
B |9999----12-12-12-12----4444----2222----------------------------------------|
F#|9999-x4-12-12-12-12-x4-4444-x4-2222-x4-------------------------------------|
B |9999----12-12-12-12----4444----2222----------------------------------------|

Solo
                                            x2  1st end  2nd end
Db|--------------------------------------------|-------|-17-16----17-16---17-16---|
G#|--------------------------------------------|-------|------14-------14---------|
E |77-99-11-11-13-13---11-11--1313-14-14-16-16-|-9-x16-|--------------------------|
B |--------------------------------------------|-------|--------------------------|
F#|--------------------------------------------|-------|--------------------------|
B |--------------------------------------------|-------|--------------------------|

Solo continued                 End on
Db|19-16-----19-16----19--16--|---------------------------------------------------|
G#|------14--------14---------|---------------------------------------------------|
E |---------------------------|---------------------------------------------------|
B |---------------------------|-0-------------------------------------------------|
F#|---------------------------|-0-------------------------------------------------|
B |---------------------------|-0-------------------------------------------------|
************************************

| /   slide up
| \   slide down
| h   hammer-on
| p   pull-off
| ~   vibrato
| +   harmonic
| x   Mute note
| b   Bend
| pb  Pre-bend
| br  Bend release
| pbr Pre-bend release
| brb Bend release bend

************************************
            
Hard to play? Try these video lessons and learn fast. | Correct




comments powered by Disqus
↑ Back to top | Tablatures and chords are parodies/interpretations of the original songs. You may use it for private study, scholarship, research or language learning purposes only