» » »

Young Guns, Dearly Departed Tabs (ver.1)

Artists:  A B C D E F G H I J K L M N O P Q R S T U V W X Y Z # 

Dearly Departed Tabs (ver.1)

Young Guns Tabs
 Rating:
4/5 (4 votes)
Dearly Departed lessons Tabs too difficult? Try these video lessons and learn fast
                ----------------------------------------------------------
----------------------------------------------------------

Tuning:Drop B (B,F#,B,E,G#,Db)


Intro:Guitar 1

Db|------------------------------------------------------------------|
G#|------------------------------------------------------------------|
 E|------------------------------------------------------------------|
 B|---3-3-3-3-3/5/8-8-8-8-8/10\7-7-7-7-7\5/8-8-8-8-8p7h8p7-----------|x2
F#|---3-3-3-3-3/5/8-8-8-8-8/10\7-7-7-7-7\5/8-8-8-8-8p7h8p7-----------|
 B|---3-3-3-3-3/5/8-8-8-8-8/10\7-7-7-7-7\5/8-8-8-8-8p7h8p7-----------|

Guitar 2:

Db|-------------------------19-19-19-19-19-19-19-19--17-17-17-|
G#|-17-17-17-17-17-17-17-17-----------------------------------|
 E|-----------------------------------------------------------|
 B|-----------------------------------------------------------|
F#|-----------------------------------------------------------|
 B|-----------------------------------------------------------|
                                                               x2
Db|-17-17-15-15-18-18-18-18-18-18-18-18-----------------------|
G#|-----------------------------------------------------------|
 E|-----------------------------------------------------------|
 B|-----------------------------------------------------------|
F#|-----------------------------------------------------------|
 B|-----------------------------------------------------------|


Verse 1:
(0:13)
"Oh, dust and bones..."

Db|----------------------------------------------|
G#|----------------------------------------------|
 E|----------------------------------------------|
 B|---------3~~~~~~~~~-------8~~~~~~~~~----------|
F#|---------3~~~~~~~~~-------8~~~~~~~~~----------|
 B|---------3~~~~~~~~~-------8~~~~~~~~~----------|

(0:21)
"Are monuments..."

Db|----------------------------------------------------------------------|
G#|----------------------------------------------------------------------|
 E|----------------------------------------------------------------------|
 B|-0-0-0-0-0-0-0-0---3-3-3-3-3-3-3-3---8-8-8-8-8-8-8-8-8-8-8-8-8-8-8-8--|2x
F#|-0-0-0-0-0-0-0-0---3-3-3-3-3-3-3-3---8-8-8-8-8-8-8-8-8-8-8-8-8-8-8-8--|
 B|-0-0-0-0-0-0-0-0---3-3-3-3-3-3-3-3---8-8-8-8-8-8-8-8-8-8-8-8-8-8-8-8--|


Chorus: Guitar 1
(0:36)
Db|---------------------------------------------------------------|
G#|---------------------------------------------------------------|
 E|---------------------------------------------------------------|
 B|---3-3-3-3-3/5/8-8-8-8-8/10\7-7-7-7-7\5/8-8-8-8-8p7h8p7--------|x4
F#|---3-3-3-3-3/5/8-8-8-8-8/10\7-7-7-7-7\5/8-8-8-8-8p7h8p7--------|
 B|---3-3-3-3-3/5/8-8-8-8-8/10\7-7-7-7-7\5/8-8-8-8-8p7h8p7--------|

Guitar 2:

Db|-------------------------19-19-19-19-19-19-19-19--17-17-17-|
G#|-17-17-17-17-17-17-17-17-----------------------------------|
 E|-----------------------------------------------------------|
 B|-----------------------------------------------------------|
F#|-----------------------------------------------------------|
 B|-----------------------------------------------------------|
                                                               x4
Db|-17-17-15-15-18-18-18-18-18-18-18-18-----------------------|
G#|-----------------------------------------------------------|
 E|-----------------------------------------------------------|
 B|-----------------------------------------------------------|
F#|-----------------------------------------------------------|
 B|-----------------------------------------------------------|


Verse 2:
(1:04)"Your sticks and stones..."
Db|----------------------------------------------|
G#|----------------------------------------------|
 E|----------------------------------------------|
 B|---------3~~~~~~~~~-------8~~~~~~~~~----------|
F#|---------3~~~~~~~~~-------8~~~~~~~~~----------|
 B|---------3~~~~~~~~~-------8~~~~~~~~~----------|

(1:11)"I'm bruised..."
Db|----------------------------------------------------------------------|
G#|----------------------------------------------------------------------|
 E|----------------------------------------------------------------------|
 B|-0-0-0-0-0-0-0-0---3-3-3-3-3-3-3-3---8-8-8-8-8-8-8-8-8-8-8-8-8-8-8-8--|2x
F#|-0-0-0-0-0-0-0-0---3-3-3-3-3-3-3-3---8-8-8-8-8-8-8-8-8-8-8-8-8-8-8-8--|
 B|-0-0-0-0-0-0-0-0---3-3-3-3-3-3-3-3---8-8-8-8-8-8-8-8-8-8-8-8-8-8-8-8--|


Chorus:Guitar 1
(1:25)
Db|--------------------------------------------------------------|
G#|--------------------------------------------------------------|
 E|--------------------------------------------------------------|
 B|---3-3-3-3-3/5/8-8-8-8-8/10\7-7-7-7-7\5/8-8-8-8-8p7h8p7-------|x4
F#|---3-3-3-3-3/5/8-8-8-8-8/10\7-7-7-7-7\5/8-8-8-8-8p7h8p7-------|
 B|---3-3-3-3-3/5/8-8-8-8-8/10\7-7-7-7-7\5/8-8-8-8-8p7h8p7-------|

Guitar 2:

Db|-------------------------19-19-19-19-19-19-19-19--17-17-17-|
G#|-17-17-17-17-17-17-17-17-----------------------------------|
 E|-----------------------------------------------------------|
 B|-----------------------------------------------------------|
F#|-----------------------------------------------------------|
 B|-----------------------------------------------------------|
                                                               x4
Db|-17-17-15-15-18-18-18-18-18-18-18-18-----------------------|
G#|-----------------------------------------------------------|
 E|-----------------------------------------------------------|
 B|-----------------------------------------------------------|
F#|-----------------------------------------------------------|
 B|-----------------------------------------------------------|


Bridge:
(1:53)"None of the..."
Db|---------------------------------------------------|
G#|---------------------------------------------------|
 E|---7---5-------------5----7------------------------|2x
 B|---7---5---3-----8---5----7------------------------|You'll figure out
F#|---5---3---3-----8---3----5------------------------|the strumming pattern
 B|-----------3-----8---------------------------------|


Chorus:Guitar 1
(2:21)
Db|--------------------------------------------------------------------|
G#|--------------------------------------------------------------------|
 E|--------------------------------------------------------------------|
 B|---3-3-3-3-3/5/8-8-8-8-8/10\7-7-7-7-7\5/8-8-8-8-8p7h8p7-------------|x6
F#|---3-3-3-3-3/5/8-8-8-8-8/10\7-7-7-7-7\5/8-8-8-8-8p7h8p7-------------|
 B|---3-3-3-3-3/5/8-8-8-8-8/10\7-7-7-7-7\5/8-8-8-8-8p7h8p7-------------|


Guitar 2:

Db|--------------------------19-19-19-19-19-19-19-19--17-17-17--|
G#|-17-17-17-17-17-17-17-17-------------------------------------|
 E|-------------------------------------------------------------|
 B|-------------------------------------------------------------|
F#|-------------------------------------------------------------|
 B|-------------------------------------------------------------|
                                                                 x6
Db|-17-17-15-15-18-18-18-18-18-18-18-18-------------------------|
G#|-------------------------------------------------------------|
 E|-------------------------------------------------------------|
 B|-------------------------------------------------------------|
F#|-------------------------------------------------------------|
 B|-------------------------------------------------------------|

End with:

Db|--------------|
G#|--------------|
 E|--------------|
 B|-----3~~~~----|
F#|-----3~~~~----|
 B|-----3~~~~----|

************************************

| /   slide up
| \   slide down
| h   hammer-on
| p   pull-off
| ~   vibrato
| +   harmonic
| x   Mute note
| b   Bend
| pb  Pre-bend
| br  Bend release
| pbr Pre-bend release
| brb Bend release bend

************************************
            
Submit corrections

comments powered by Disqus
↑ Back to top | Young Guns Tabs for Dearly Departed. Lyrics for acoustic guitar and electric guitar. Tablatures and chords are parodies/interpretations of the original songs. You may use it for private study, scholarship, research or language learning purposes only