>
 >
Crystal Clear

Crystal Clear Guitar Tabs

Young Guns - Crystal Clear chords, tabs, tablatures, lyrics

Guitar lessons | Add/correct | Request | Top 50 tabs Artists:  A B C D E F G H I J K L M N O P Q R S T U V W X Y Z 0-9

Crystal Clear Guitar Tabs – Young Guns

CD, Sheet music, Poster

Do you like Crystal Clear? Share with your friends now
ChordsTabsUkulele
Band: Young Guns

This is absolute anthem of a song! I was surprised there's nothing posted up for it so 
far, so I thought I'd give it a crack. (all work done by ear). Also, if you like Young 
Guns you may like my band, "ScreamDontWhisper!" - check us out here:

Tuning: Drop C (C, G, C, F, A, D)
Key: F# major

Guitar 1 (rhythm):

Intro:
      E   E   E   E   E   E   E   E      E   E   E   E   E   E   E   E
D||----------------------------------|----------------------------------|
A||----------------------------------|----------------------------------|
F||----------------------------------|----------------------------------|
C||--10--10--10--10--10--10--10--10--|--12--12--12--12--12--12--12--12--|
G||--10--10--10--10--10--10--10--10--|--13--13--13--13--13--13--13--13--|
C||--10--10--10--10--10--10--10--10--|--12--12--12--12--12--12--12--12--|


  E  E  E  E  E  E  E  E     E  E  E  E  E  E  E  E
--------------------------|--------------------------|
--------------------------|--------------------------|
--8--8--8--8--8--8--8--8--|--------------------------|
--8--8--8--8--8--8--8--8--|--6--6--6--6--6--6--6--6--|      x2
--6--6--6--6--6--6--6--6--|--6--6--6--6--6--6--6--6--|
--------------------------|--6--6--6--6--6--6--6--6--|

Verse:

   PM  PM  PM PM PM PM PM PM    PM PM PM PM PM PM PM PM
   E   E   E  E  E  E  E  E     E  E  E  E  E  E  E  E
|-----------------------------|--------------------------|
|-----------------------------|--------------------------|
|-----------------------------|--------------------------|
|--10--10--10--6--6--6--6--6--|--6--6--6--6--6--6--6--6--|
|--10--10--10--6--6--6--6--6--|--6--6--6--6--6--6--6--6--|
|--10--10--10--6--6--6--6--6--|--6--6--6--6--6--6--6--6--|


 PM PM PM PM PM PM PM PM    PM PM PM PM PM PM PM PM
 E  E  E  E  E  E  E  E     E  E  E  E  E  E  E  E
--------------------------|--------------------------|
--------------------------|--------------------------|
--------------------------|--------------------------|
--8--8--8--8--8--8--8--8--|--8--8--8--8--8--8--8--8--|     x4
--8--8--8--8--8--8--8--8--|--8--8--8--8--8--8--8--8--|
--8--8--8--8--8--8--8--8--|--8--8--8--8--8--8--8--8--|


Pre-Chorus

  E  E  E  E  E  E  E  E     E  E  E  E  E  E  E  E
|--------------------------|--------------------------|
|--------------------------|--------------------------|
|--------------------------|--------------------------|
|--3--L--3--3--L--3--3--3--|--3--L--3--3--L--3--3--3--|
|--3--L--3--3--L--3--3--3--|--3--L--3--3--L--3--3--3--|
|--3--L--3--3--L--3--3--3--|--3--L--3--3--L--3--3--3--|


  E  E  E  E  E  E  E  E     E  E  E  E  E  E  E  E
--------------------------|--------------------------|
--------------------------|--------------------------|
--------------------------|--------------------------|
--6--L--6--6--L--6--6--6--|--6--L--6--6--L--6--6--6--|
--6--L--6--6--L--6--6--6--|--6--L--6--6--L--6--6--6--|
--6--L--6--6--L--6--6--6--|--6--L--6--6--L--6--6--6--|


   E  E   E   E  E   E   E   E      E  E   E   E  E   E   E   E
--------------------------------|--------------------------------|
--------------------------------|--------------------------------|
--------------------------------|--------------------------------|
--10--L--10--10--L--10--10--10--|--10--L--10--10--L--10--10--10--|
--10--L--10--10--L--10--10--10--|--10--L--10--10--L--10--10--10--|
--10--L--10--10--L--10--10--10--|--10--L--10--10--L--10--10--10--|


  E  E  E  E  E  E  E  E     E  E  E  E  E  E  E  E
--------------------------|--------------------------|
--------------------------|--------------------------|
--------------------------|--------------------------|
--8--L--8--8--L--8--8--8--|--8--L--8--8--x--x--x--x--|
--8--L--8--8--L--8--8--8--|--8--L--8--8--x--x--x--x--|
--8--L--8--8--L--8--8--8--|--8--L--8--8--x--x--x--x--|

Chorus:

  E  E  E  E  E  E  E  E     E  E  E  E  E  E  E  E
|--------------------------|--------------------------|
|--------------------------|--------------------------|
|--------------------------|--------------------------|
|--6--6--6--6--6--6--6--6--|--1--1--1--1--1--1--1--1--|
|--6--6--6--6--6--6--6--6--|--1--1--1--1--1--1--1--1--|
|--6--6--6--6--6--6--6--6--|--1--1--1--1--1--1--1--1--|


  E  E  E  E  E  E  E  E     E  E  E  E  E  E  E  E
--------------------------|--------------------------|
--------------------------|--------------------------|
--------------------------|--------------------------|
--8--8--8--8--8--8--8--8--|--8--8--8--8--8--8--8--8--|    x4
--8--8--8--8--8--8--8--8--|--8--8--8--8--8--8--8--8--|
--8--8--8--8--8--8--8--8--|--8--8--8--8--8--8--8--8--|

Verse:

    PM  PM  PM PM PM PM PM PM    PM PM PM PM PM PM PM PM
    E   E   E  E  E  E  E  E     E  E  E  E  E  E  E  E
|-----------------------------|--------------------------|
|-----------------------------|--------------------------|
|-----------------------------|--------------------------|
|--10--10--10--6--6--6--6--6--|--6--6--6--6--6--6--6--6--|
|--10--10--10--6--6--6--6--6--|--6--6--6--6--6--6--6--6--|
|--10--10--10--6--6--6--6--6--|--6--6--6--6--6--6--6--6--|


  PM PM PM PM PM PM PM PM    PM PM PM PM PM PM PM PM
  E  E  E  E  E  E  E  E     E  E  E  E  E  E  E  E
--------------------------|--------------------------|
--------------------------|--------------------------|
--------------------------|--------------------------|
--8--8--8--8--8--8--8--8--|--8--8--8--8--8--8--8--8--|    x4
--8--8--8--8--8--8--8--8--|--8--8--8--8--8--8--8--8--|
--8--8--8--8--8--8--8--8--|--8--8--8--8--8--8--8--8--|

Pre-Chorus:

  E  E  E  E  E  E  E  E     E  E  E  E  E  E  E  E
--------------------------|--------------------------|
--------------------------|--------------------------|
--------------------------|--------------------------|
--3--L--3--3--L--3--3--3--|--3--L--3--3--L--3--3--3--|
--3--L--3--3--L--3--3--3--|--3--L--3--3--L--3--3--3--|
--3--L--3--3--L--3--3--3--|--3--L--3--3--L--3--3--3--|


  E  E  E  E  E  E  E  E     E  E  E  E  E  E  E  E
--------------------------|--------------------------|
--------------------------|--------------------------|
--------------------------|--------------------------|
--6--L--6--6--L--6--6--6--|--6--L--6--6--L--6--6--6--|
--6--L--6--6--L--6--6--6--|--6--L--6--6--L--6--6--6--|
--6--L--6--6--L--6--6--6--|--6--L--6--6--L--6--6--6--|


   E  E   E   E  E   E   E   E      E  E   E   E  E   E   E   E
--------------------------------|--------------------------------|
--------------------------------|--------------------------------|
--------------------------------|--------------------------------|
--10--L--10--10--L--10--10--10--|--10--L--10--10--L--10--10--10--|
--10--L--10--10--L--10--10--10--|--10--L--10--10--L--10--10--10--|
--10--L--10--10--L--10--10--10--|--10--L--10--10--L--10--10--10--|


  E  E  E  E  E  E  E  E     E  E  E  E  E  E  E  E
--------------------------|--------------------------|
--------------------------|--------------------------|
--------------------------|--------------------------|
--8--L--8--8--L--8--8--8--|--8--L--8--8--x--x--x--x--|
--8--L--8--8--L--8--8--8--|--8--L--8--8--x--x--x--x--|
--8--L--8--8--L--8--8--8--|--8--L--8--8--x--x--x--x--|

Chorus:

  E  E  E  E  E  E  E  E     E  E  E  E  E  E  E  E
|--------------------------|--------------------------|
|--------------------------|--------------------------|
|--------------------------|--------------------------|
|--6--6--6--6--6--6--6--6--|--1--1--1--1--1--1--1--1--|
|--6--6--6--6--6--6--6--6--|--1--1--1--1--1--1--1--1--|
|--6--6--6--6--6--6--6--6--|--1--1--1--1--1--1--1--1--|


  E  E  E  E  E  E  E  E     E  E  E  E  E  E  E  E
--------------------------|--------------------------|
--------------------------|--------------------------|
--------------------------|--------------------------|
--8--8--8--8--8--8--8--8--|--8--8--8--8--8--8--8--8--|   x4
--8--8--8--8--8--8--8--8--|--8--8--8--8--8--8--8--8--|
--8--8--8--8--8--8--8--8--|--8--8--8--8--8--8--8--8--|

Bridge:
   W                    W
|--------------------|----------------------|
|--------------------|----------------------|
|--------------------|----------------------|
|--10----------------|--12------------------|
|--10----------------|--13------------------|
|--10----------------|--12------------------|

  H        H           W
--------------------|-------------------|
--------------------|-------------------|
--8--------8--------|-------------------|   x2
--8--------8--------|--6----------------|
--6--------6--------|--6----------------|
--------------------|--6----------------|


    E   E   E   E   E   E   E   E     E   E   E   E   E   E   E   E
|----------------------------------|----------------------------------|
|----------------------------------|----------------------------------|
|----------------------------------|----------------------------------|
|--10--10--10--10--10--10--10--10--|--12--12--12--12--12--12--12--12--|
|--10--10--10--10--10--10--10--10--|--13--13--13--13--13--13--13--13--|
|--10--10--10--10--10--10--10--10--|--12--12--12--12--12--12--12--12--|

1) E  E  E  E  E  E  E  E     E  E  E  E  E  E  E  E
|--------------------------|--------------------------|
|--------------------------|--------------------------|
|--8--8--8--8--8--8--8--8--|--------------------------|
|--8--8--8--8--8--8--8--8--|--6--6--6--6--6--6--6--6--|
|--6--6--6--6--6--6--6--6--|--6--6--6--6--6--6--6--6--|
|--------------------------|--6--6--6--6--6--6--6--6--|

2) E   E   E   E   E   E   E   E
|--15--15--15--15--15--15--15--15--|
|--13--13--13--13--13--13--13--13--|
|--12--12--12--12--12--12--12--12--| x2
|----------------------------------|
|----------------------------------|
|----------------------------------|

Chorus x2:

  E  E  E  E  E  E  E  E     E  E  E  E  E  E  E  E
|--------------------------|--------------------------|
|--------------------------|--------------------------|
|--------------------------|--------------------------|
|--6--6--6--6--6--6--6--6--|--1--1--1--1--1--1--1--1--|
|--6--6--6--6--6--6--6--6--|--1--1--1--1--1--1--1--1--|
|--6--6--6--6--6--6--6--6--|--1--1--1--1--1--1--1--1--|


  E  E  E  E  E  E  E  E     E  E  E  E  E  E  E  E
--------------------------|--------------------------|
--------------------------|--------------------------|
--------------------------|--------------------------|
--8--8--8--8--8--8--8--8--|--8--8--8--8--8--8--8--8--|   x4
--8--8--8--8--8--8--8--8--|--8--8--8--8--8--8--8--8--|
--8--8--8--8--8--8--8--8--|--8--8--8--8--8--8--8--8--|

Outro:

    E   E   E   E   E   E   E   E     E   E   E   E   E   E   E   E
|----------------------------------|----------------------------------|
|----------------------------------|----------------------------------|
|----------------------------------|----------------------------------|
|--10--10--10--10--10--10--10--10--|--12--12--12--12--12--12--12--12--|
|--10--10--10--10--10--10--10--10--|--13--13--13--13--13--13--13--13--|
|--10--10--10--10--10--10--10--10--|--12--12--12--12--12--12--12--12--|


1) E  E  E  E  E  E  E  E     E  E  E  E  E  E  E  E
|--------------------------|--------------------------|
|--------------------------|--------------------------|
|--8--8--8--8--8--8--8--8--|--------------------------|
|--8--8--8--8--8--8--8--8--|--6--6--6--6--6--6--6--6--|
|--6--6--6--6--6--6--6--6--|--6--6--6--6--6--6--6--6--|
|--------------------------|--6--6--6--6--6--6--6--6--|

2) W                   W
|-------------------|-------------------||
|-------------------|-------------------||
|-------------------|-------------------||
|--6----------------|--L----------------||
|--6----------------|--L----------------||
|--6----------------|--L----------------||


Duration Legend
---------------
W - whole
H - half
Q - quarter
E - 8th
S - 16th
T - 32nd
X - 64th
. - note dotted

Tablature Legend
----------------
L - tied note
x - dead note
h - hammer on
p - pull off
b - bend


Guitar 2 to follow shortly, got a few bits down but it's really hard to hear in the mix. 
For the meantime enjoy! :)





Comments


Popular Young Guns tabs & chords
Bones 2 Tabs
Dearly Departed Tabs
I Was Born I Have Lived I Will Surely Die Tabs
Weight Of The World Tabs
Weight Of The World Intro Tabs
Beneath The Waves Ukulele
Bones Ukulele
Crystal Clear Ukulele
Winter Kiss Ukulele
You Are Not Ukulele


Song lyrics



↑ Back to top | Tablatures and chords are parodies/interpretations of the original songs. You may use it for private study, scholarship, research or language learning purposes only
© 2014 AZChords.com Contact us | Privacy policy | DMCA | Add/correct tabs | Request tabs | Top 50 tabs