» » »

Noises Tabs (ver.2)

Artists:  A B C D E F G H I J K L M N O P Q R S T U V W X Y Z # 

Noises Tabs (ver.2)

You Me At Six
Rating:
0/5 (0 votes)

Hard to play? Try these video lessons and learn fast.
                first tab :)
noises.
sounds pretty accurate. some parts missing


Drop D

Intro: Guitar 1 (chris)

|-------------------------------------------------------------------|
|-------------------------------------------------------------------|
|-------------------------------------------------------------------|
|-----7---6-----------6-7-6-------7---6-----------6-7-6-----6-7h9p6-|
|-4-4-4-4-4-4-4-7-4-4-4-4-4---0-0-0-0-0-0-0-7-0-0-0-0-0-0-0-0-0-----|
|-4-4-4-4-4-4-4-4-4-4-4-4-4---0-0-0-0-0-0-0-0-0-0-0-0-0-0-0-0-0-----|
 PM..................................................................

|-------------------------------------------------------------------|
|-------------------------------------------------------------------|
|-------------------------------------------------------------------|
|-----7---6-----------6-7-6---7-6-6-6-6-6-6-6-6-6-6-6-6-------------|
|-4-4-4-4-4-4-4-7-4-4-4-4-4---0-0-0-0-0-0-0-0-0-0-0-0-0-0-0-0-0-0-0-|
|-4-4-4-4-4-4-4-4-4-4-4-4-4---0-0-0-0-0-0-0-0-0-0-0-0-0-0-0-0-0-0-0-|
  PM........................                (Bend 6's)
Verse 1:

Guitar 2 (max) Only. Sorry

|-------------------------------------------------------------------|
|-------------------------------------------------------------------|
|----7h9h12p9--7h9h12p9--7h9h12p9h14--------------------------------|
|-------------------------------------------------------------------|  
|-------------------------------------------------------------------|
|-------------------------------------------------------------------|

                     As many times as needed

Prechorus.
          (guitar2)          (guitar1)
|-------------------------------------------------------------------|
|-------------------------------------------------------------------|
|----------7h9h12----------7h9h12p9h14------------------------------|
|--4-4-4------------4-4-4-------------------------------------------|
|--4-4-4------------4-4-4-------------------------------------------|
|--4-4-4------------4-4-4-------------------------------------------|
  (Guitar1)         (guitar1)
Chorus

|-------------------------------------------------------------------|
|-------------------------------------------------------------------|
|-------------------------------------------------------------------| (x4)
|---4-4-4--4-4--4-4-4-4-----0-0-0--0-0--0-0-0-0---------------------|
|---4-4-4--4-4--4-4-4-4-----0-0-0--0-0--0-0-0-0---------------------|
|---4-4-4--4-4--4-4-4-4-----0-0-0--0-0--0-0-0-0---------------------|


Verse 2 : same as verse 1

prechorus again

chorus again

Breakdown
    (guitar1)     (guitar2)      (guitar1)     (guitar2)
|-------------------------------------------------------------------|
|-------------------------------------------------------------------|
|-------------------------------------------------------------------|
|---4-4-4-4--------4-4-4-4-------4-4-4-4-------4-4-4-4--------------|
|---4-4-4-4--------4-4-4-4-------4-4-4-4-------4-4-4-4--------------|
|---4-4-4-4--------4-4-4-4-------4-4-4-4-------4-4-4-4--------------|


(LIAR)

e|-------------------------------------------------------------------|
B|-----------10------------10---------------10----------------10-----|
G|------------x-------------x----------------x----------------x------|
D|-0-0-0-0----7--0-0-0-0----7-----0-0-0-0----7-----0-0-0-0----7------| 
A|-0-0-0-0-------0-0-0-0----------0-0-0-0----------0-0-0-0-----------|
D|-0-0-0-0-------0-0-0-0----------0-0-0-0----------0-0-0-0-----------|

                     AS many times as needed
            
Hard to play? Try these video lessons and learn fast. | Correct




comments powered by Disqus
↑ Back to top | Tablatures and chords are parodies/interpretations of the original songs. You may use it for private study, scholarship, research or language learning purposes only