>
 >
My Head Is A Prison And Nobody Visits 1

My Head Is A Prison And Nobody Visits 1 Guitar Tabs

You Me At Six - My Head Is A Prison And Nobody Visits 1 chords, tabs, tablatures, lyrics

Guitar lessons | Add/correct | Request | Top 50 tabs Artists:  A B C D E F G H I J K L M N O P Q R S T U V W X Y Z 0-9

My Head Is A Prison And Nobody Visits 1 Guitar Tabs – You Me At Six

CD, Sheet music, Poster

Do you like My Head Is A Prison And Nobody Visits 1? Share with your friends now
TabsTabs v2


== GUITAR ONE (LEAD) ==

[0:00]
e|---------------------------------|
B|-11--11--11--11--11--11--11--11--|
G|-10--10--10--10--10--10--10--10--|
D|-8---8---8---8---8---8---8---8---|
A|---------------------------------|
E|---------------------------------|

[0:03]
e|----------------------------------------------------------------|
B|-11--11--11--11--11--11--11--11---------------------------------|
G|-10--10--10--10--10--10--10--10--11--11--11--11--8--8--8--8-----|
D|-8---8---8---8---8---8---8---8---11--11--11--11--8--8--8--8-----|
A|---------------------------------9---9---9---9---6--6--6--6-----|
E|----------------------------------------------------------------|

e|----------------------------------------------------------------|
B|-11--11--11--11--11--11--11--11---------------------------------|
G|-10--10--10--10--10--10--10--10--11--11--11--11--8--8--8--8-----|
D|-8---8---8---8---8---8---8---8---11--11--11--11--8--8--8--8-----|
A|---------------------------------9---9---9---9---6--6--6--6-----|
E|----------------------------------------------------------------|

[0:16]
e|---------------------------------------------------------------|
B|-11~-------------------------------11~-------------------------|
G|----10~-------------------------------10~----------------------|
D|-------8~--------------------------------8~--------------------|
A|-----------------9/11-11~-------------------------9--8---------|
E|--------------------------------------------------------6~-----|

[0:43]
e|----------------------------------------------------------------|
B|-11--11--11--11--11--11--11--11---------------------------------|
G|-10--10--10--10--10--10--10--10--11--11--11--11--8--8--8--8-----|
D|-8---8---8---8---8---8---8---8---11--11--11--11--8--8--8--8-----|
A|---------------------------------9---9---9---9---6--6--6--6-----|
E|----------------------------------------------------------------|

e|----------------------------------------------------------------|
B|-11--11--11--11--11--11--11--11---------------------------------|
G|-10--10--10--10--10--10--10--10--11--11--11--11--8--8--8--8-----|
D|-8---8---8---8---8---8---8---8---11--11--11--11--8--8--8--8-----|
A|---------------------------------9---9---9---9---6--6--6--6-----|
E|----------------------------------------------------------------|

[0:55]
e|-----------------------------|
B|-11---9/11-11-11---14-14-14--|
G|-10---8/10-10-10---13-13-13--|
D|-8----6/8--8--8----11-11-11--|
A|-----------------------------|
E|-----------------------------|

[1:00]
e|---------------------------------------------------------------------|
B|-1111111111111111-1414141414141414-----------------------------------|
G|-1010101010101010-1313131313131313-1111111111111111-888888888888888--|
D|-8-8-8-8-8-8-8-8--1111111111111111-1111111111111111-888888888888888--|
A|-----------------------------------9-9-9-9-9-9-9-9--666666666666666--|
E|---------------------------------------------------------------------|

e|---------------------------------------------------------------------|
B|-1111111111111111-1414141414141414-----------------------------------|
G|-1010101010101010-1313131313131313-1111111111111111-888888888888888--|
D|-8-8-8-8-8-8-8-8--1111111111111111-1111111111111111-888888888888888--|
A|-----------------------------------9-9-9-9-9-9-9-9--666666666666666--|
E|---------------------------------------------------------------------|

[1:12]
e|---------------------------------------------------------------|
B|-11~-------------------------------11~-------------------------|
G|----10~-------------------------------10~----------------------|
D|-------8~--------------------------------8~--------------------|
A|-----------------9/11-11~-------------------------9--8---------|
E|--------------------------------------------------------6~-----|

[1:26]
e|----------------------------------------------------------------|
B|-11--11--11--11--11--11--11--11---------------------------------|
G|-10--10--10--10--10--10--10--10--11--11--11--11--8--8--8--8-----|
D|-8---8---8---8---8---8---8---8---11--11--11--11--8--8--8--8-----|
A|---------------------------------9---9---9---9---6--6--6--6-----|
E|----------------------------------------------------------------|

e|----------------------------------------------------------------|
B|-11--11--11--11--11--11--11--11---------------------------------|
G|-10--10--10--10--10--10--10--10--11--11--11--11--8--8--8--8-----|
D|-8---8---8---8---8---8---8---8---11--11--11--11--8--8--8--8-----|
A|---------------------------------9---9---9---9---6--6--6--6-----|
E|----------------------------------------------------------------|

[1:39]
e|-----------------------------|
B|-11---9/11-11-11-------------|
G|-10---8/10-10-10-------------|
D|-8----6/8--8--8----xxxxxxxx--|
A|-------------------xxxxxxxx--|
E|-------------------xxxxxxxx--|

[1:42]
e|---------------------------------------------------------------------|
B|-1111111111111111-1414141414141414-----------------------------------|
G|-1010101010101010-1313131313131313-1111111111111111-888888888888888--|
D|-8-8-8-8-8-8-8-8--1111111111111111-1111111111111111-888888888888888--|
A|-----------------------------------9-9-9-9-9-9-9-9--666666666666666--|
E|---------------------------------------------------------------------|

e|---------------------------------------------------------------------|
B|-1111111111111111-1414141414141414-----------------------------------|
G|-1010101010101010-1313131313131313-1111111111111111-888888888888888--|
D|-8-8-8-8-8-8-8-8--1111111111111111-1111111111111111-888888888888888--|
A|-----------------------------------9-9-9-9-9-9-9-9--666666666666666--|
E|---------------------------------------------------------------------|

e|---------------------------------------------------------------------|
B|-1111111111111111-1414141414141414-----------------------------------|
G|-1010101010101010-1313131313131313-1111111111111111-888888888888888--|
D|-8-8-8-8-8-8-8-8--1111111111111111-1111111111111111-888888888888888--|
A|-----------------------------------9-9-9-9-9-9-9-9--666666666666666--|
E|---------------------------------------------------------------------|

e|---------------------------------------------------------------------|
B|-1111111111111111-1414141414141414-----------------------------------|
G|-1010101010101010-1313131313131313-1111111111111111-888888888888888--|
D|-8-8-8-8-8-8-8-8--1111111111111111-1111111111111111-888888888888888--|
A|-----------------------------------9-9-9-9-9-9-9-9--666666666666666--|
E|---------------------------------------------------------------------|

[2:09]
e|------------------------------------------------------------------|
B|------------------------------------------------------------------|
G|--6--5-------------6--5------------6--5-------------6--5---6--8~--|
D|---------6-/8~------------6/8~-----------6-/8~--------------------|
A|------------------------------------------------------------------|
E|------------------------------------------------------------------|

[2:23]
e|-9--8--------------9--8-------------9--8-------------9--8---------|
B|-------9--/11~-----------9-/11~-----------9-/11~-----------9-/11~-|
G|------------------------------------------------------------------|
D|------------------------------------------------------------------|
A|------------------------------------------------------------------|
E|------------------------------------------------------------------|

[2:36]
e|-----------------------------|
B|-11---9/11-11-11-------------|
G|-10---8/10-10-10-------------|
D|-8----6/8--8--8----xxxxxxxx--|
A|-------------------xxxxxxxx--|
E|-------------------xxxxxxxx--|

[2:39]
e|---------------------------------------------------------------------|
B|-1111111111111111-1414141414141414-----------------------------------|
G|-1010101010101010-1313131313131313-1111111111111111-888888888888888--|
D|-8-8-8-8-8-8-8-8--1111111111111111-1111111111111111-888888888888888--|
A|-----------------------------------9-9-9-9-9-9-9-9--666666666666666--|
E|---------------------------------------------------------------------|

e|---------------------------------------------------------------------|
B|-1111111111111111-1414141414141414-----------------------------------|
G|-1010101010101010-1313131313131313-1111111111111111-888888888888888--|
D|-8-8-8-8-8-8-8-8--1111111111111111-1111111111111111-888888888888888--|
A|-----------------------------------9-9-9-9-9-9-9-9--666666666666666--|
E|---------------------------------------------------------------------|

[2:53]
e|-9--8--------------9--8-------------11-13------------11-13--------|
B|-------9--/11~-----------9-/11~-----------13/14~-----------13/14~-|
G|------------------------------------------------------------------|
D|------------------------------------------------------------------|
A|------------------------------------------------------------------|
E|------------------------------------------------------------------|
                                                
[3:06]
e|---------------------------------------------------------------|
B|---------------------------------------------------------------|
G|---------------------------------------------------------------|
D|-8~~-------11-11-11---4--333/4-4--1----------------------------|
A|---------------------------------------------------------------|
E|---------------------------------------------------------------|

e|---------------------------------------------------------------|
B|---------------------------------------------------------------|
G|---------------------------------------------------------------|
D|-8-666/8~--11-11-11---4--333/4-4-------------------------------|
A|---------------------------------------------------------------|
E|---------------------------------------------------------------|



== GUITAR TWO (RHYTHM) ==

[0:03]
e|----------------------------------------------------|
B|--------------(elevens)-----------------(ones)------|
G|----------------------------------------------------|
D|-8-666888--111111-11-11-11---4-333444-11111111------|
A|-8-666888--111111-11-11-11---4-333444-11111111------|
D|-8-666888--111111-11-11-11---4-333444-11111111------|

e|----------------------------------------------------|
B|--------------(elevens)-----------------(ones)------|
G|----------------------------------------------------|
D|-8-666888--111111-11-11-11---4-333444-11111111--8~--|
A|-8-666888--111111-11-11-11---4-333444-11111111--8~--|
D|-8-666888--111111-11-11-11---4-333444-11111111--8~--|

[0:29]
e|---------------------------------------------------------|
B|-11~-------------------------11~-------------------------|
G|-10~---------11~----8~-------10~---------11~----8~-------|
D|-8~----------11~----8~-------8~----------11~----8~-------|
A|-------------9~-----6~-------------------9~-----6~-------|
D|---------------------------------------------------------|

[0:42]
e|----------------------------------------------------|
B|--------------(elevens)-----------------(ones)------|
G|----------------------------------------------------|
D|-8-666888--111111-11-11-11---4-333444-11111111------|
A|-8-666888--111111-11-11-11---4-333444-11111111------|
D|-8-666888--111111-11-11-11---4-333444-11111111------|

e|----------------------------------------------------|
B|--------------(elevens)-----------------(ones)------|
G|----------------------------------------------------|
D|-8-666888--111111-11-11-11---4-333444-11111111--8~--|
A|-8-666888--111111-11-11-11---4-333444-11111111--8~--|
D|-8-666888--111111-11-11-11---4-333444-11111111--8~--|

[0:59]
e|--------------|
B|---(elevens)--|
G|--------------|
D|-11--11--11---|
A|-11--11--11---|
D|-11--11--11---|

[1:00]
e|--------------------------------------------------------------------|
B|------------------------------------------------------(ones)--------|
G|-----------------6666666666666666-----------------------------------|
D|-888888888888888-6666666666666666-4444444444444444-111111111111111--|
A|-888888888888888-4444444444444444-4444444444444444-111111111111111--|
D|-888888888888888------------------4444444444444444-111111111111111--|

e|--------------------------------------------------------------------|
B|------------------------------------------------------(ones)--------|
G|-----------------6666666666666666-----------------------------------|
D|-888888888888888-6666666666666666-4444444444444444-111111111111111--|
A|-888888888888888-4444444444444444-4444444444444444-111111111111111--|
D|-888888888888888------------------4444444444444444-111111111111111--|

[1:19]
e|---------------------------------------------------------------|
B|----------------------------------------------(ones)-----------|
G|---------------------------------------------------------------|
D|---------------------------8-------------------11111-----------|
A|---------------------------8-------------------11111-----------|
D|-8-8-8-8-8-8-8-8-8-8-8-8-8-8-8-8-4-4-4-4-1-1-1-11111-----------|
PM . . . . . . . . . . . . .   . . . . . . . . . 

[1:26]
e|----------------------------------------------------|
B|--------------(elevens)-----------------(ones)------|
G|----------------------------------------------------|
D|-8-666888--111111-11-11-11---4-333444-11111111------|
A|-8-666888--111111-11-11-11---4-333444-11111111------|
D|-8-666888--111111-11-11-11---4-333444-11111111------|

e|----------------------------------------------------|
B|--------------(elevens)-----------------(ones)------|
G|----------------------------------------------------|
D|-8-666888--111111-11-11-11---4-333444-11111111--8~--|
A|-8-666888--111111-11-11-11---4-333444-11111111--8~--|
D|-8-666888--111111-11-11-11---4-333444-11111111--8~--|

[1:42]
e|--------------------------------------------------------------------|
B|------------------------------------------------------(ones)--------|
G|-----------------6666666666666666-----------------------------------|
D|-888888888888888-6666666666666666-4444444444444444-111111111111111--|
A|-888888888888888-4444444444444444-4444444444444444-111111111111111--|
D|-888888888888888------------------4444444444444444-111111111111111--|

e|--------------------------------------------------------------------|
B|------------------------------------------------------(ones)--------|
G|-----------------6666666666666666-----------------------------------|
D|-888888888888888-6666666666666666-4444444444444444-111111111111111--|
A|-888888888888888-4444444444444444-4444444444444444-111111111111111--|
D|-888888888888888------------------4444444444444444-111111111111111--|

e|--------------------------------------------------------------------|
B|------------------------------------------------------(ones)--------|
G|-----------------6666666666666666-----------------------------------|
D|-888888888888888-6666666666666666-4444444444444444-111111111111111--|
A|-888888888888888-4444444444444444-4444444444444444-111111111111111--|
D|-888888888888888------------------4444444444444444-111111111111111--|

e|--------------------------------------------------------------------|
B|------------------------------------------------------(ones)--------|
G|-----------------6666666666666666-----------------------------------|
D|-888888888888888-6666666666666666-4444444444444444-111111111111111--|
A|-888888888888888-4444444444444444-4444444444444444-111111111111111--|
D|-888888888888888------------------4444444444444444-111111111111111--|

[2:09]
e|-------------------------------------------------------------------|
B|-------------------------------------------------------------------|
G|-------------------------------------------------------------------|
D|-4-4-4-4-4-4-4-4--4-6-6-6-6-6-6-6--6-8-8-8-8-8-8-8-8-8-8-8-8-8-8-8-|
A|-4-4-4-4-4-4-4-4--4-6-6-6-6-6-6-6--6-8-8-8-8-8-8-8-8-8-8-8-8-8-8-8-|
D|-4-4-4-4-4-4-4-4--4-6-6-6-6-6-6-6--6-8-8-8-8-8-8-8-8-8-8-8-8-8-8-8-|

e|-------------------------------------------------------------------|
B|-------------------------------------------------------------------|
G|-------------------------------------------------------------------|
D|-4-4-4-4-4-4-4-4--4-6-6-6-6-6-6-6--6-1-1-1-1-1-1-1-1-1-1-1-1-1-1-1-|
A|-4-4-4-4-4-4-4-4--4-6-6-6-6-6-6-6--6-1-1-1-1-1-1-1-1-1-1-1-1-1-1-1-|
D|-4-4-4-4-4-4-4-4--4-6-6-6-6-6-6-6--6-1-1-1-1-1-1-1-1-1-1-1-1-1-1-1-|

e|-------------------------------------------------------------------|
B|-------------------------------------------------------------------|
G|-------------------------------------------------------------------|
D|-4-4-4-4-4-4-4-4--4-6-6-6-6-6-6-6--6-8-8-8-8-8-8-8-8-8-8-8-8-8-8-8-|
A|-4-4-4-4-4-4-4-4--4-6-6-6-6-6-6-6--6-8-8-8-8-8-8-8-8-8-8-8-8-8-8-8-|
D|-4-4-4-4-4-4-4-4--4-6-6-6-6-6-6-6--6-8-8-8-8-8-8-8-8-8-8-8-8-8-8-8-|

e|-------------------------------------------------------------------|
B|---------------------------------------------------(ones)----------|
G|-------------------------------------------------------------------|
D|-4-4-4-4-4-4-4-4--4-6-6-6-6-6-6-6--6-1-1-1-1-1-1-1-1-1-1-111111111-|
A|-4-4-4-4-4-4-4-4--4-6-6-6-6-6-6-6--6-1-1-1-1-1-1-1-1-1-1-111111111-|
D|-4-4-4-4-4-4-4-4--4-6-6-6-6-6-6-6--6-1-1-1-1-1-1-1-1-1-1-111111111-|

[2:39]
e|--------------------------------------------------------------------|
B|------------------------------------------------------(ones)--------|
G|-----------------6666666666666666-----------------------------------|
D|-888888888888888-6666666666666666-4444444444444444-111111111111111--|
A|-888888888888888-4444444444444444-4444444444444444-111111111111111--|
D|-888888888888888------------------4444444444444444-111111111111111--|

e|--------------------------------------------------------------------|
B|------------------------------------------------------(ones)--------|
G|-----------------6666666666666666-----------------------------------|
D|-888888888888888-6666666666666666-4444444444444444-111111111111111--|
A|-888888888888888-4444444444444444-4444444444444444-111111111111111--|
D|-888888888888888------------------4444444444444444-111111111111111--|

e|--------------------------------------------------------------------|
B|------------------------------------------------------(ones)--------|
G|-----------------6666666666666666-----------------------------------|
D|-888888888888888-6666666666666666-4444444444444444-111111111111111--|
A|-888888888888888-4444444444444444-4444444444444444-111111111111111--|
D|-888888888888888------------------4444444444444444-111111111111111--|

e|--------------------------------------------------------------------|
B|------------------------------------------------------(ones)--------|
G|-----------------6666666666666666-----------------------------------|
D|-888888888888888-6666666666666666-4444444444444444-111111111111111--|
A|-888888888888888-4444444444444444-4444444444444444-111111111111111--|
D|-888888888888888------------------4444444444444444-111111111111111--|

[3:05]
e|----------------------------------------------------|
B|--------------(elevens)-----------------(ones)------|
G|----------------------------------------------------|
D|-8-666888--111111-11-11-11---4-333444-11111111------|
A|-8-666888--111111-11-11-11---4-333444-11111111------|
D|-8-666888--111111-11-11-11---4-333444-11111111------|

e|----------------------------------------------------|
B|--------------(elevens)-----------------------------|
G|----------------------------------------------------|
D|-8-666888--111111-11-11-11---4-333444---------------|
A|-8-666888--111111-11-11-11---4-333444---------------|
D|-8-666888--111111-11-11-11---4-333444---------------|





Comments


Popular You Me At Six tabs & chords
Hope For The Best Bass Tabs
Poker Face 2 Bass Tabs
Stay With Me Bass Tabs
Loverboy 2 Chords
Jealous Minds Think Alike Tabs
Jealous Minds Think Alike 2 Tabs
Little Death Tabs
Nasty Habits Tabs
If You Run Ukulele
Nasty Habits Ukulele


Song lyrics



↑ Back to top | Tablatures and chords are parodies/interpretations of the original songs. You may use it for private study, scholarship, research or language learning purposes only
© 2014 AZChords.com Contact us | Privacy policy | DMCA | Add/correct tabs | Request tabs | Top 50 tabs