>
 >
If You Run

If You Run Guitar Tabs

You Me At Six - If You Run chords, tabs, tablatures, lyrics

Guitar lessons | Add/correct | Request | Top 50 tabs Artists:  A B C D E F G H I J K L M N O P Q R S T U V W X Y Z 0-9

If You Run Guitar Tabs – You Me At Six

CD, Sheet music, Poster

Do you like If You Run? Share with your friends now
Bass TabsBass Tabs v2ChordsChords v2TabsTabs v2Ukulele
E----------------------------------||
B----------------------------------|| 
G----------------------------------|| 
D-0-0-0--12-10--8--10-8-5-8-3------||
A-0-0-0---x-x---8--10-8-5-8-3------|| 
E-0-0-0--10--8--8--10-8-5-8-3------||

E----------------------------------||
B----------------------------------|| 
G----------------------------------|| 
D-0-0-0--12-10--8--10-8-5-8-3------||
A-0-0-0---x-x---8--10-8-5-8-3------|| 
E-0-0-0-10-8---8--10-8-5-8-3------||

E----------------------------------||
B----------------------------------|| 
G----------------------------------|| 
D-0-0-0--12-10--8--10-8-5-8-3------||
A-0-0-0---x-x---8--10-8-5-8-3------|| 
E-0-0-0--10--8--8--10-8-5-8-3------||

E----------------------------------||
B----------------------------------|| 
G----------------------------------|| 
D----3-3-3-3-3---5-5-5-5-5---------|| 
A----3-3-3-3-3---5-5-5-5-5---------|| 
E----3-3-3-3-3---5-5-5-5-5---------||

E----------------------------------||
B----------------------------------|| 
G----------------------------------|| 
D-8-8--8-5-5--5-0-0--5--0-0-3-3----|| x6
A-8-8--8-5-5--5-0-0--5--0-0-3-3----|| 
E-8-8--8-5-5--5-0-0--5--0-0-3-3----||

E----------------------------------||
B----------------------------------|| 
G----------------------------------|| 
D-8------10------8------10---------|| 
A-8------10------8------10---------|| 
E-8------10------8------10---------||

E-----------------------------------------------------------||
B-----------------------------------------------------------|| 
G-----------------------------------------------------------|| 
D-8-8-8-8-8-8-8-8-10-10-10-10-10-10-10-10-0-0-0-0-0-0-0-0---|| 
A-8-8-8-8-8-8-8-8-10-10-10-10-10-10-10-10-0-0-0-0-0-0-0-0---|| 
E-8-8-8-8-8-8-8-8-10-10-10-10-10-10-10-10-0-0-0-0-0-0-0-0---||

E-------------------------------||
B-------------------------------|| 
G-------------------------------|| 
D-0-0-0-0-0-0-0-0---------------|| 
A-0-0-0-0-0-0-0-0---------------|| 
E-0-0-0-0-0-0-0-0---------------||

E------------------------------------------||
B------------------------------------------|| 
G------------------------------------------|| 
D-8-8-8-8-8-8-8-8-10-10-10-10-10-10-10-10--|| 
A-8-8-8-8-8-8-8-8-10-10-10-10-10-10-10-10--|| 
E-8-8-8-8-8-8-8-8-10-10-10-10-10-10-10-10--||

E----------------------------------||
B----------------------------------|| 
G----------------------------------|| 
D--0-0-0-0-0-0-0-0-3-3-3-3-3-3-3-3-|| 
A--0-0-0-0-0-0-0-0-3-3-3-3-3-3-3-3-|| 
E--0-0-0-0-0-0-0-0-3-3-3-3-3-3-3-3-||

E-----------------------------------------------------------||
B-----------------------------------------------------------|| 
G-----------------------------------------------------------|| 
D-8-8-8-8-8-8-8-8-10-10-10-10-10-10-10-10-0-0-0-0-0-0-0-0---|| 
A-8-8-8-8-8-8-8-8-10-10-10-10-10-10-10-10-0-0-0-0-0-0-0-0---|| 
E-8-8-8-8-8-8-8-8-10-10-10-10-10-10-10-10-0-0-0-0-0-0-0-0---||

E-------------------------------||
B-------------------------------|| 
G-------------------------------|| 
D-0-0-0-0-0-0-0-0---------------|| 
A-0-0-0-0-0-0-0-0---------------|| 
E-0-0-0-0-0-0-0-0---------------||

E------------------------------------------||
B------------------------------------------|| 
G------------------------------------------|| 
D-8-8-8-8-8-8-8-8-10-10-10-10-10-10-10-10--|| 
A-8-8-8-8-8-8-8-8-10-10-10-10-10-10-10-10--|| 
E-8-8-8-8-8-8-8-8-10-10-10-10-10-10-10-10--||

E----------------------------------||
B----------------------------------|| 
G----------------------------------|| 
D--0-0-0-0-0-0-0-0-3-3-3-3-3-3-3-3-|| 
A--0-0-0-0-0-0-0-0-3-3-3-3-3-3-3-3-|| 
E--0-0-0-0-0-0-0-0-3-3-3-3-3-3-3-3-||

E----------------------------------||
B----------------------------------|| 
G----------------------------------|| 
D-8-8--8-5-5--5-0-0--5--0-0-3-3----|| 
A-8-8--8-5-5--5-0-0--5--0-0-3-3----|| 
E-8-8--8-5-5--5-0-0--5--0-0-3-3----||

E----------------------------------||
B----------------------------------|| 
G----------------------------------|| 
D-8-8--8-5-5--5-0-0--5--0----------|| 
A-8-8--8-5-5--5-0-0--5--0----------|| 
E-8-8--8-5-5--5-0-0--5--0----------||

E----------------------------------||
B----------------------------------|| 
G----------------------------------|| 
D-8-8--8-5-5--5-0-0--5--0-0-3-3----|| 
A-8-8--8-5-5--5-0-0--5--0-0-3-3----|| x4
E-8-8-8-5-5--5-0-0--5--0-0-3-3----||

E----------------------------------||
B----------------------------------|| 
G----------------------------------|| 
D-8------10------8------10---------|| 
A-8------10------8------10---------|| 
E-8------10------8------10---------||

E-----------------------------------------------------------||
B-----------------------------------------------------------|| 
G-----------------------------------------------------------|| 
D-8-8-8-8-8-8-8-8-10-10-10-10-10-10-10-10-0-0-0-0-0-0-0-0---|| 
A-8-8-8-8-8-8-8-8-10-10-10-10-10-10-10-10-0-0-0-0-0-0-0-0---|| 
E-8-8-8-8-8-8-8-8-10-10-10-10-10-10-10-10-0-0-0-0-0-0-0-0---||

E-------------------------------||
B-------------------------------|| 
G-------------------------------|| 
D-0-0-0-0-0-0-0-0---------------|| 
A-0-0-0-0-0-0-0-0---------------|| 
E-0-0-0-0-0-0-0-0---------------||

E------------------------------------------||
B------------------------------------------|| 
G------------------------------------------|| 
D-8-8-8-8-8-8-8-8-10-10-10-10-10-10-10-10--|| 
A-8-8-8-8-8-8-8-8-10-10-10-10-10-10-10-10--|| 
E-8-8-8-8-8-8-8-8-10-10-10-10-10-10-10-10--||


E----------------------------------||
B----------------------------------|| 
G----------------------------------|| 
D--0-0-0-0-0-0-0-0-3-3-3-3-3-3-3-3-|| 
A--0-0-0-0-0-0-0-0-3-3-3-3-3-3-3-3-|| 
E--0-0-0-0-0-0-0-0-3-3-3-3-3-3-3-3-||

E-----------------------------------------------------------||
B-----------------------------------------------------------|| 
G-----------------------------------------------------------|| 
D-8-8-8-8-8-8-8-8-10-10-10-10-10-10-10-10-0-0-0-0-0-0-0-0---|| 
A-8-8-8-8-8-8-8-8-10-10-10-10-10-10-10-10-0-0-0-0-0-0-0-0---|| 
E-8-8-8-8-8-8-8-8-10-10-10-10-10-10-10-10-0-0-0-0-0-0-0-0---||

E-------------------------------||
B-------------------------------|| 
G-------------------------------|| 
D-0-0-0-0-0-0-0-0---------------|| 
A-0-0-0-0-0-0-0-0---------------|| 
E-0-0-0-0-0-0-0-0---------------||

E------------------------------------------||
B------------------------------------------|| 
G------------------------------------------|| 
D-8-8-8-8-8-8-8-8-10-10-10-10-10-10-10-10--|| 
A-8-8-8-8-8-8-8-8-10-10-10-10-10-10-10-10--|| 
E-8-8-8-8-8-8-8-8-10-10-10-10-10-10-10-10--||

E----------------------------------||
B----------------------------------|| 
G----------------------------------|| 
D--0-0-0-0-0-0-0-0-3-3-3-3-3-3-3-3-|| 
A--0-0-0-0-0-0-0-0-3-3-3-3-3-3-3-3-|| 
E--0-0-0-0-0-0-0-0-3-3-3-3-3-3-3-3-||

E----------------------------------||
B----------------------------------|| 
G----------------9-----------------|| 
D-8------10------7------3----------|| 
A-8------10------7------3----------|| 
E-8------10------7------3----------||

E----------------------------------||
B----------------------------------|| 
G----------------9-----------------|| 
D-8------10------7------3----------|| 
A-8------10------7------3----------|| 
E-8------10------7------3----------||

E------------------------------------------||
B------------------------------------------|| 
G------------------------------------------|| 
D-8-8-8-8-8-8-8-8---8---8-8---8-8-8--------|| 
A-8-8-8-8-8-8-8-8---8---8-8---8-8-8--------|| 
E-8-8-8-8-8-8-8-8---8---8-8---8-8-8--------||

E--------------------------------------------------------||
B--------------------------------------------------------|| 
G--------------------------------------------------------|| 
D-10-10-10-10-10-10-10-10---10---10-10---10-10-10--------|| 
A-10-10-10-10-10-10-10-10---10---10-10---10-10-10--------|| 
E-10-10-10-10-10-10-10-10---10---10-10---10-10-10--------||

E------------------------------------------||
B------------------------------------------|| 
G-9-9-9-9-9-9-9-9---9---9-9---9-9-9--------|| 
D-7-7-7-7-7-7-7-7---7---7-7---7-7-7--------|| 
A-7-7-7-7-7-7-7-7---7---7-7---7-7-7--------|| 
E-7-7-7-7-7-7-7-7---7---7-7---7-7-7--------||

E----------------------------------||
B----------------------------------|| 
G----------------------------------|| 
D-3-3-3-3-3-3-3-3---3-3-3-3-3-3----|| 
A-3-3-3-3-3-3-3-3---3-3-3-3-3-3----|| 
E-3-3-3-3-3-3-3-3---3-3-3-3-3-3----||


E----------------------------------||
B----------------------------------|| 
G----------------------------------|| 
D-8-8-8-8-8-8-8-8-8-8-8-8-8-8-8-8--|| 
A-8-8-8-8-8-8-8-8-8-8-8-8-8-8-8-8--|| 
E-8-8-8-8-8-8-8-8-8-8-8-8-8-8-8-8--||

E------------------------------------------------------------------||
B------------------------------------------------------------------|| 
G------------------------------------------------------------------|| 
D-10-10-10-10-10-10-10-10-10-10-10-10-10-10-10-10------------------|| 
A-10-10-10-10-10-10-10-10-10-10-10-10-10-10-10-10------------------|| 
E-10-10-10-10-10-10-10-10-10-10-10-10-10-10-10-10------------------||

E----------------------------------||
B----------------------------------|| 
G----------------------------------|| 
D-0-0-0-0-0-0-0-0-0-0-0-0-0-0-0-0--|| 
A-0-0-0-0-0-0-0-0-0-0-0-0-0-0-0-0--|| 
E-0-0-0-0-0-0-0-0-0-0-0-0-0-0-0-0--||

E----------------------------------||
B----------------------------------|| 
G----------------------------------|| 
D-3-3-3-3-3-3-3-3-3-3-3-3-3-3-3-3--|| 
A-3-3-3-3-3-3-3-3-3-3-3-3-3-3-3-3--|| 
E-3-3-3-3-3-3-3-3-3-3-3-3-3-3-3-3--||

E----------------------------------||
B----------------------------------|| 
G----------------------------------|| 
D-8-8-8-8-8-8-8-8-8-8-8-8-8-8-8-8--|| 
A-8-8-8-8-8-8-8-8-8-8-8-8-8-8-8-8--|| 
E-8-8-8-8-8-8-8-8-8-8-8-8-8-8-8-8--||

E------------------------------------------------------------------||
B------------------------------------------------------------------|| 
G------------------------------------------------------------------|| 
D-10-10-10-10-10-10-10-10-10-10-10-10-10-10-10-10------------------|| 
A-10-10-10-10-10-10-10-10-10-10-10-10-10-10-10-10------------------|| 
E-10-10-10-10-10-10-10-10-10-10-10-10-10-10-10-10------------------||

E----------------------------------||
B----------------------------------|| 
G----------------------------------|| 
D-0-0-0-0-0-0-0-0-0-0-0-0-0-0-0-0--|| 
A-0-0-0-0-0-0-0-0-0-0-0-0-0-0-0-0--|| 
E-0-0-0-0-0-0-0-0-0-0-0-0-0-0-0-0--||

E----------------------------------||
B----------------------------------|| 
G----------------------------------|| 
D-3-3-3-3-3-3-3-3-3-3-3-3-3-3-3-3--|| 
A-3-3-3-3-3-3-3-3-3-3-3-3-3-3-3-3--|| 
E-3-3-3-3-3-3-3-3-3-3-3-3-3-3-3-3--||


E----------------------------------||
B----------------------------------|| 
G----------------------------------|| 
D-8-8-8-8-8-8-8-8-8-8-8-8-8-8-8-8--|| 
A-8-8-8-8-8-8-8-8-8-8-8-8-8-8-8-8--|| 
E-8-8-8-8-8-8-8-8-8-8-8-8-8-8-8-8--||

E------------------------------------------------------------------||
B------------------------------------------------------------------|| 
G------------------------------------------------------------------|| 
D-10-10-10-10-10-10-10-10-10-10-10-10-10-10-10-10------------------|| 
A-10-10-10-10-10-10-10-10-10-10-10-10-10-10-10-10------------------|| 
E-10-10-10-10-10-10-10-10-10-10-10-10-10-10-10-10------------------||

E----------------------------------||
B----------------------------------|| 
G----------------------------------|| 
D-0-0-0-0-0-0-0-0-0-0-0-0-0-0-0-0--|| 
A-0-0-0-0-0-0-0-0-0-0-0-0-0-0-0-0--|| 
E-0-0-0-0-0-0-0-0-0-0-0-0-0-0-0-0--||

E----------------------------------||
B----------------------------------|| 
G----------------------------------|| 
D-3-3-3-3-3-3-3-3-3-3-3-3-3-3-3-3--|| 
A-3-3-3-3-3-3-3-3-3-3-3-3-3-3-3-3--|| 
E-3-3-3-3-3-3-3-3-3-3-3-3-3-3-3-3--||

E----------------------------------||
B----------------------------------|| 
G----------------------------------|| 
D-8-8-8-8-8-8-8-8-8-8-8-8-8-8-8-8--|| 
A-8-8-8-8-8-8-8-8-8-8-8-8-8-8-8-8--|| 
E-8-8-8-8-8-8-8-8-8-8-8-8-8-8-8-8--||

E------------------------------------------------------------------||
B------------------------------------------------------------------|| 
G------------------------------------------------------------------|| 
D-10-10-10-10-10-10-10-10-10-10-10-10-10-10-10-10------------------|| 
A-10-10-10-10-10-10-10-10-10-10-10-10-10-10-10-10------------------|| 
E-10-10-10-10-10-10-10-10-10-10-10-10-10-10-10-10------------------||

E----------------------------------||
B----------------------------------|| 
G----------------------------------|| 
D-0-0-0-0-0-0-0-0-0-0-0-0-0-0-0-0--|| 
A-0-0-0-0-0-0-0-0-0-0-0-0-0-0-0-0--|| 
E-0-0-0-0-0-0-0-0-0-0-0-0-0-0-0-0--||

E----------------------------------||
B----------------------------------|| 
G----------------------------------|| 
D-3-3-3-3-3-3-3-3-3-3-3-3-3-3-3-3--|| 
A-3-3-3-3-3-3-3-3-3-3-3-3-3-3-3-3--|| 
E-3-3-3-3-3-3-3-3-3-3-3-3-3-3-3-3--||

E----------------------------------||
B----------------------------------|| 
G----------------------------------|| 
D-0-0-0--12-10--8--10-8-5-8-3------||
A-0-0-0---x-x---8--10-8-5-8-3------|| 
E-0-0-0--10--8--8--10-8-5-8-3------||





Comments


Popular You Me At Six tabs & chords
Stay With Me 2 Bass Tabs
Jealous Minds Think Alike 2 Chords
Rescue Me 1 Chords
Safer To Hate Her Chords
The Truth Is A Terrible Thing Chords
Fact-tastic Tabs
Save It For The Bedroom 1 Tabs
This Turbulence Is Beautiful Tabs
The Consequence Ukulele
Tigers And Sharks Ukulele


Song lyrics



↑ Back to top | Tablatures and chords are parodies/interpretations of the original songs. You may use it for private study, scholarship, research or language learning purposes only
© 2014 AZChords.com Contact us | Privacy policy | DMCA | Add/correct tabs | Request tabs | Top 50 tabs