» » »

If You Run Bass tabs (ver.1)

Artists:  A B C D E F G H I J K L M N O P Q R S T U V W X Y Z # 

If You Run Bass tabs (ver.1)

You Me At Six
Rating:
0/5 (0 votes)

Hard to play? Try these video lessons and learn fast.
                

Tuning: Dropped D (G,D,A,D)

Key
^ = Bend
~ = Let Ring
* = Kill the note right after playing (Stattico?)

NOTE
All '10's throughout the song are Tens, not Ones then opens.

Intro
G|--------------------------------------------------------|
D|--------------------------------------------------------|
A|--------------------------------------------------------|
D|-0000-10-8--8-10-8-5-8-3~-0000-10-8--8-10-8-5-8-3^------|

G|-------------------------------------------|
D|-------------------------------------------|
A|-------------------------------------------|
D|-0000-10-8--8-10-8-5-8-3--33333~-55555~----|

Verse
G|--------------------------------------|
D|--------------------------------------| X6
A|--------------------------------------|
D|-88---8~-55---5~-00---5~-00---33------|

Pre-Chorus
G|--------------------------------------------|
D|--------------------------------------------|
A|--------------------------------------------|
D|-8-8-8-8-8-8-8-8-10-10-10-10-10-10-10-10----|

G|---------------------------------------------------|
D|---------------------------------------------------|
A|---------------------------------------------------|
D|-8-8-8-8-8-8-8-8-10-10-10-10-1010101010101010------|

Chorus X2
G|--------------------------------------------------|
D|--------------------------------------------------|
A|--------------------------------------------------|
D|-88888888-1010101010101010-0000000000000000-------|

G|--------------------------------------------------|
D|--------------------------------------------------|
A|--------------------------------------------------|
D|-88888888-101010101010101010-00000000-33333333----|

Pre-Verse
G|--------------------------------------|
D|--------------------------------------|
A|--------------------------------------|
D|-88---8~-55---5~-00---5~-00---33------|

G|-----------------------------|
D|-----------------------------|
A|-----------------------------|
D|-88---8~-55---5~-00---5~-0*--|

Verse
G|--------------------------------------|
D|--------------------------------------| X4
A|--------------------------------------|
D|-88---8~-55---5~-00---5~-00---33------|

Pre-Chorus
G|--------------------------------------------|
D|--------------------------------------------|
A|--------------------------------------------|
D|-8-8-8-8-8-8-8-8-10-10-10-10-10-10-10-10----|

G|---------------------------------------------------|
D|---------------------------------------------------|
A|---------------------------------------------------|
D|-8-8-8-8-8-8-8-8-10-10-10-10-1010101010101010------|

Chorus X2
G|--------------------------------------------------|
D|--------------------------------------------------|
A|--------------------------------------------------|
D|-88888888-1010101010101010-0000000000000000-------|

G|--------------------------------------------------|
D|--------------------------------------------------|
A|--------------------------------------------------|
D|-88888888-101010101010101010-00000000-33333333----|

Breakdown
Part 1:
G|------------------------------|
D|------------------------------| X2
A|------------------------------|
D|-8~-----10~-----7~-----3~-----|

Part 2 (play lightly until playing on the 7th fret, then slowly build up before the end 
the bar):
G|---------------------------------------------------------------------|
D|---------------------------------------------------------------------|
A|---------------------------------------------------------------------|
D|-8888888888888888-10101010101010101010101010101010 7777777777777777--|

G|---------------------|
D|---------------------|
A|---------------------|
D|-3333333333333333*---|

Outro
G|---------------------------------------------------------------------|
D|---------------------------------------------------------------------|
A|---------------------------------------------------------------------|
D|-8888888888888888-10101010101010101010101010101010 7777777777777777--|

G|--------------------|
D|--------------------| X4
A|--------------------|
D|-3333333333333333---|

G|---------------------------------|
D|---------------------------------|
A|---------------------------------|
D|-0000-10-8--8-10-8-5-8-3-0000----|
            
Hard to play? Try these video lessons and learn fast. | Correct




comments powered by Disqus
↑ Back to top | Tablatures and chords are parodies/interpretations of the original songs. You may use it for private study, scholarship, research or language learning purposes only