» » »

You Me At Six, If I Were In Your Shoes Tabs (ver.2)

Artists:  A B C D E F G H I J K L M N O P Q R S T U V W X Y Z # 

If I Were In Your Shoes Tabs (ver.2)

You Me At Six Tabs
Rating:
4/5 (1 vote)
If I Were In Your Shoes lessons Tabs too difficult? Try these video lessons and learn fast
                (Intro)
E-------------------------------|
B-------------------------------| x2
G-------------------------------|
D--7--99-7--99------------------|
A--7--99-7--99------------------|
D--7--99-7--99------------------|

E-------------------------------|
B-------------------------------|
G-------------------------------|
D--44--6--1---------------------|
A--44--6--1---------------------|
E--44--6--1---------------------|

just repeat that for the verse and chorus ill probaly tab the rest of it when i figure 
out
            

comments powered by Disqus
↑ Back to top | You Me At Six Tabs for If I Were In Your Shoes. Lyrics for acoustic guitar and electric guitar. Tablatures and chords are parodies/interpretations of the original songs. You may use it for private study, scholarship, research or language learning purposes only