» » »

You Me At Six, If I Were In Your Shoes Tabs (ver.4)

Artists:  A B C D E F G H I J K L M N O P Q R S T U V W X Y Z # 

If I Were In Your Shoes Tabs (ver.4)

You Me At Six Tabs
 Rating:
4.6/5 (10 votes)
If I Were In Your Shoes lessons Tabs too difficult? Try these video lessons and learn fast
                
Pre Chorus Lead Part: (after verse)
e||------------------------------|-----------------------------|
B||------------------------------|-----------------------------|
G||------------------------------|----2----4-------------------|
D||--2—444444--2-444444-2-444444-|------44---44----Repeat------|
A||------------------------------|-----------------------------|
D||------------------------------|-----------------------------|

Chorus Lead Part:
e||---------------12-9-----------|--------------12-9-----------|
B||--------10----------12-10-----|-------10-----------12-10----|
G||-//9-11----11-----------------|--9-11----11-----------------|
D||------------------------------|-----------------------------|
A||------------------------------|-----------------------------|
D||------------------------------|-----------------------------|

e||--12-9--------12-9------------|---------9-------------------|
B||-------12-10-------12-10-12~~~|---121212--1212--------------|
G||------------------------------|-----------------------------|
D||------------------------------|------Twelve’s not 1s and 2s-|
A||------------------------------|-----------------------------|
D||------------------------------|-----------------------------|

e||---------------12-9-----------|--------------12-9-----------|
B||--------10----------12-10-----|-------10-----------12-10----|
G||-//9-11----11-----------------|--9-11----11-----------------|
D||------------------------------|-----------------------------|
A||------------------------------|-----------------------------|
D||------------------------------|-----------------------------|

e||--12-9--------12-9------------|-----------------------------|
B||-------12-10-------12-10-12~~~|---12b(14) (bend up slowly while
G||------------------------------|---------Picking)------------|
D||------------------------------|-----------------------------|
A||------------------------------|-----------------------------|
D||------------------------------|-----------------------------|

Solo:
e||----------------------1-1-----|--------5----5---------------|
B||------------------2-5---------|---5--7---7--7—-5~~----------|
G||--4br—2-4-----2-4-------------|-----------------------------|
D||----------2-4-----------------|-----------------------------|
A||------------------------------|-----------------------------|
D||------------------------------|-----------------------------|

e||------------------------------|-----------------------------|
B||--T[14]-7-5-----T[17]-7-5-----|-T[19]-7-5----19b------------|
G||-----x4-----------x4----------|-----x4-------18b------------|
D||------------------------------|-----------------------------|
A||------------------------------|-----------------------------|
D||------------------------------|-----------------------------|
            
Submit corrections

comments powered by Disqus
↑ Back to top | You Me At Six Tabs for If I Were In Your Shoes. Lyrics for acoustic guitar and electric guitar. Tablatures and chords are parodies/interpretations of the original songs. You may use it for private study, scholarship, research or language learning purposes only