» » »

If I Were In Your Shoes Bass tabs (ver.3)

Artists:  A B C D E F G H I J K L M N O P Q R S T U V W X Y Z # 

If I Were In Your Shoes Bass tabs (ver.3)

You Me At Six
Rating:
5/5 (1 vote)

Tabs too difficult? Try these video lessons and learn fast.
                :)

intro/verse
--------|--------|--------|--------|
--------|--------|--------|--------|
2-442-44|--------|2-442-44|---0----| x2
--------|--------|--------|22---0--|

--------|--------|--------|--------|
--------|--------|--------|--------|
2-442-44|44444444|2-442-44|---00---| x2
--------|--------|--------|222--000|

Pre chorus
--------|--------|--------|--------|
--------|--------|--------|--------|
-5~-----|--------|--------|-5~-----|
--------|-0~-----|202-02-0|2-------|

--------|--------|--------|--------|
--------|--------|--------|--------|
-5~-----|--------|--------|--------|
--------|-0~-----|202-02--|000-----|

Chorus
Whenever nessecery
--------|--------|--------|--------|
--------|--------|--------|--------|
--------|--------|-5------|--------| 
-2------|-5------|--------|-0------|

-2--555-|once
-0--222-|repeated
            
Tabs too difficult? Try these video lessons and learn fast.




comments powered by Disqus
↑ Back to top | Tablatures and chords are parodies/interpretations of the original songs. You may use it for private study, scholarship, research or language learning purposes only