» » »

You Me At Six, If I Were In Your Shoes Tabs (ver.3)

Artists:  A B C D E F G H I J K L M N O P Q R S T U V W X Y Z # 

If I Were In Your Shoes Tabs (ver.3)

You Me At Six Tabs
 Rating:
3.3/5 (6 votes)
If I Were In Your Shoes lessons Tabs too difficult? Try these video lessons and learn fast
                -------------------------------------------------------------------------------
	         If i were in your shoes - you me at six
-------------------------------------------------------------------------------

Tuning:Drop D


Intro and verse 

E-------------------|		
B-------------------|         11’s not 1’s
G-------------------|
D--9-1111-9-1111----|  x2  
A--9-1111-9-1111----|
D--9-1111-9-1111----|

E-------------|		         
B-------------|
G-------------|
D--44-6-2-----|  
A—-44-6-2-----|
D--44-6-2-----|          whole verse x5

Pre-chorus

E----------------------------------------|
B----------------------------------------|
G----------------------------------------|
D--000000--222222—4-22-4-22-4-22-4-22-4--|
A--000000--222222—4-22-4-22-4-22-4-22-4--|
D--000000--222222—4-22-4-22-4-22-4-22-4--|

E----------------------------------|
B----------------------------------|
G----------------------------------|
D--0000--2222—-4-22-4-22-4-22222---|
A--0000--2222—-4-22-4-22-4-22222---|
D--0000--2222—-4-22-4-22-4-22222---|



chorus

E--------------------------------------------------------------|
B--------------------------------------------------------------|
G--------------------------------------------------------------|
D--44444444--777777h9p7h9--00000000---22222222-----------------|  
A--44444444--777777h9p7h9--00000000---22222222-----------------|
D--44444444--777777h9p7h9--00000000---22222222-----------------|

E----------------------------------------------------------|
B----------------------------------------------------------|
G----------------------------------------------------------|
D--44444444--77777777--00000000---22222222-----------------|  
A--44444444--77777777--00000000---22222222-----------------|
D--44444444--77777777--00000000---22222222-----------------|

verse

E-------------------|		
B-------------------|         11’s not 1’s
G-------------------|
D--9-1111-9-1111----|  x2  
A--9-1111-9-1111----|
D--9-1111-9-1111----|

E-------------|		
B-------------|
G-------------|
D--44-6-2-----|    whole verse x4
A—-44-6-2-----|
D--44-6-2-----|

Pre-chorus

E----------------------------------------|
B----------------------------------------|
G----------------------------------------|
D--000000--222222—4-22-4-22-4-22-4-22-4--|
A--000000--222222—4-22-4-22-4-22-4-22-4--|
D--000000--222222—4-22-4-22-4-22-4-22-4--|

E----------------------------------|
B----------------------------------|
G----------------------------------|
D--0000--2222—-4-22-4-22-4-22222---|
A--0000--2222—-4-22-4-22-4-22222---|
D--0000--2222—-4-22-4-22-4-22222---|

chorus

E--------------------------------------------------------------|
B--------------------------------------------------------------|
G--------------------------------------------------------------|
D--44444444--777777h9p7h9--00000000---22222222-----------------|  
A--44444444--777777h9p7h9--00000000---22222222-----------------|
D--44444444--777777h9p7h9--00000000---22222222-----------------|

E----------------------------------------------------------|
B----------------------------------------------------------|
G----------------------------------------------------------|
D--44444444--77777777--00000000---22222222-----------------|  
A--44444444--77777777--00000000---22222222-----------------|
D--44444444--77777777--00000000---22222222-----------------|

Bridge intro

E-------------------------|		
B-------------------------|
G-------------------------|
D-4-2-2-444-2-444-2-444-2222-|  
A-4-2-2-444-2-444-2-444-2222-|
D-4-2-2-444-2-444-2-444-2222-| 

Bridge

E-------------------------------|		
B-------------------------------|
G-------------------------------|
D--2-444-2-444-2-444-2-44-7p6-2-|  
A--2-444-2-444-2-444-2-44-7p6-2-|
D--2-444-2-444-2-444-2-44-7p6-2-|

Solo
E----------------------------------------|
B----------------------------------------|
G----------------------------------------|
D--000000--222222—4-22-4-22-4-22-4-22-4--|
A--000000--222222—4-22-4-22-4-22-4-22-4--|
D--000000--222222—4-22-4-22-4-22-4-22-4--|

E----------------------------------|
B----------------------------------|
G----------------------------------|
D--0000--2222—-4-22-4-22-4-22222---|
A--0000--2222—-4-22-4-22-4-22222---|
D--0000--2222—-4-22-4-22-4-22222---|

chorus

E--------------------------------------------------------------|
B--------------------------------------------------------------|
G--------------------------------------------------------------|
D--44444444--777777h9p7h9--00000000---22222222-----------------|  
A--44444444--777777h9p7h9--00000000---22222222-----------------|
D--44444444--777777h9p7h9--00000000---22222222-----------------|

E----------------------------------------------------------|
B----------------------------------------------------------|
G----------------------------------------------------------|
D--44444444--77777777--00000000---22222222-----------------|  
A--44444444--77777777--00000000---22222222-----------------|
D--44444444--77777777--00000000---22222222-----------------|

Outro

E-----------|		
B-----------|
G-----------|
D-4-2h4p2h4-| 
A-4-2h4p2h4-|
D—4-2h4p2h4-|
            
Submit corrections

comments powered by Disqus
↑ Back to top | You Me At Six Tabs for If I Were In Your Shoes. Lyrics for acoustic guitar and electric guitar. Tablatures and chords are parodies/interpretations of the original songs. You may use it for private study, scholarship, research or language learning purposes only