>
 >
If I Were In Your Shoes

If I Were In Your Shoes Guitar Tabs

You Me At Six - If I Were In Your Shoes chords, tabs, tablatures, lyrics

Guitar lessons | Add/correct | Request | Top 50 tabs Artists:  A B C D E F G H I J K L M N O P Q R S T U V W X Y Z 0-9

If I Were In Your Shoes Guitar Tabs – You Me At Six

CD, Sheet music, Poster

Do you like If I Were In Your Shoes? Share with your friends now
Bass TabsBass Tabs v2Bass Tabs v3ChordsTabsTabs v2Tabs v3Ukulele
YouMeAtSix

If I were in your shoes

Guitar 1 - lead (Drop D)
Guitar 2 - Rhythm (Drop D)

This is near if not 100% correct. The other tabs haven't included lead parts so ive done them
Comment if you have any questions
and don't forget to rate my tab!

UPDATE (13/12/08): Noticed in solo two wrong notes, just typos. In 2nd bar

UPDATE 2 (23/02/09): another typo, in the solo 2nd tapping bar its fret 17 not 15, 
to Brokenunder for noticing.


INTRO [00:00 - 00:04]

(Guitar 2)

|----------------|------------|
|----------------|------------|
|----------------|------------|
|9--11-11-9-11-11|-x-4-4--7--2|
|9--11-11-9-11-11|-x-4-4--7--2|
|9--11-11-9-11-11|-x-4-4--7--2|

1st bar twice then 2nd bar (Counts also for verses)


VERSE X4
[00:05 - 00:25]

(Guitar 1)

|------------|------------|
|------------|------------|
|4--6-6-4-6-6|------------|
|x--x-x-x-x-x|-x-4-4--7--2|
|2--4-4-2-4-4|-x-4-4--7--2|
|------------|-x-4-4--7--2|

(Guitar 2)

|----------------|------------|
|----------------|------------|
|----------------|------------|
|9--11-11-9-11-11|-x-4-4--7--2|
|9--11-11-9-11-11|-x-4-4--7--2|
|9--11-11-9-11-11|-x-4-4--7--2|


[2nd part of verse for guitar 1]

|--------------------------------|----------|
|--------------------------------|----------|
|4--6-6-4-6-6-6-6-6-6-6-6-6-6-6-6|----------|
|x--x-x-x-x-x--------------------|-4-4--7--2|
|2--4-4-2-4-4--------------------|-4-4--7--2|
|--------------------------------|-4-4--7--2|
              . . . . . . . . . .


PRE CHORUS
[00:26 - 00:35]

(Guitar 1)

|--------------|-------------------------------|
|--------------|-------------------------------|
|--------------|-2--1----2--1----2--1----2--1--|
|2--4-4-4-4-4-4|------4-------4-------4-------4|
|--------------|-------------------------------|
|--------------|-------------------------------|

|--------------|---------------------------|
|--------------|---------------------------|
|--------------|-2--1----2--1----2---------|
|2--4-4-4-4-4-4|------4-------4-----2-2-2-2|
|--------------|---------------------------|
|--------------|---------------------------|

(Guitar 2)

|----------------------------------------------------------|
|----------------------------------------------------------|
|----------------------------------------------------------|
|0--0-0--0-0-0-0-2--2-2--2-2-2-2-4--4-2-4--4-2-4--4-2-4-4-2|
|0--0-0--0-0-0-0-2--2-2--2-2-2-2-4--4-2-4--4-2-4--4-2-4-4-2|
|0--0-0--0-0-0-0-2--2-2--2-2-2-2-4--4-2-4--4-2-4--4-2-4-4-2|

|----------------------------------------------------------|
|----------------------------------------------------------|
|----------------------------------------------------------|
|0--0-0--0-0-0-0-2--2-2--2-2-2-2-4--4-2-4--4-2-4--4-2-2-2-2|
|0--0-0--0-0-0-0-2--2-2--2-2-2-2-4--4-2-4--4-2-4--4-2-2-2-2|
|0--0-0--0-0-0-0-2--2-2--2-2-2-2-4--4-2-4--4-2-4--4-2-2-2-2|


CHORUS X2
[00:36 - 00:56]

(Guitar 1)

|--------------------------------------------------------------------------------------|
|--------------14--------------------------14------------17--14----------17--14--------|
|--------14--------16--14------------14--------16--14------------16--14----------16--14|
|14--16----------------------14--16----------------------------------------------------|
|--------------------------------------------------------------------------------------|
|--------------------------------------------------------------------------------------|

|----------------------------|
|----------------14--14------|
|16--16--16--16----------16--|
|----------------------------|
|----------------------------|
|----------------------------|

(Guitar 2)


|----------------------------------|
|----------------------------------|
|----------------------------------|
|4----------7----------0----------2|
|4----------7----------0----------2|
|4----------7----------0----------2|
                 ^
                 ^
on the first time, listen for B power chord's.....
rhythem would be like this....   7-7-7-7-7-9-7-9-9   <- Frets
                                           ^   ^ ^


VERSE 2 (same as first)
[00:57 - 01:16]


PRE CHORUS (2nd guitar same, 1st guitar can also be played in harmoney to this...)
[01:17 - 01:27]

(Guitar 1)

|--------------|------------------------------|
|--------------|------------------------------|
|--------------|6--4----6--4----6--4----6--4--|
|6--7-7-7-7-7-7|-----7-------7-------7-------7|
|--------------|------------------------------|
|--------------|------------------------------|

|--------------|--------------------------|
|--------------|--------------------------|
|--------------|6--4----6--4----6---------|
|6--7-7-7-7-7-7|-----7-------7-----6-6-6-6|
|--------------|--------------------------|
|--------------|--------------------------|


CHORUS (Same as first)
[01:28 - 01:37]


CHORUS 2 (Rhythem Changes, guitar 2 pattern changed but same chords, listen to track)
[01:38 - 01:48]


(Guitar 1)

|----------------------------------------------------------------------|
|--------------------14-14-------------------------------14-14---------|
|-------------14-14---------16-16-14---------------14-14-------16-16-14|
|14--14-16-16-------------------------14--14-16-16---------------------|
|----------------------------------------------------------------------|
|----------------------------------------------------------------------|

|-------------------------------------------------------|
|17-14--------17-14------------------------14--14-------|
|------16-14--------16-14--16--16--16--16----------16---|
|------------------------------------------------------7|
|-------------------------------------------------------|
|-------------------------------------------------------|

BRIDGE
[01:49 - 02:03]


(Guitar 1)

|---------|-------|------------|--------------|
|---------|-------|------------|--------------|
|---------|-------|9--11-11--11|9--11-11-14\13|
|---------|2-2-2-2|x--x--x---x-|x--x--x--x-\x-|
|---------|2-2-2-2|7--9--9---9-|7--9--9--12\11|
|---------|2-2-2-2|------------|--------------|


(Guitar 2)

|---------|-------|---------|---------|
|---------|-------|---------|---------|
|---------|-------|---------|---------|
|---------|2-2-2-2|2--4-4--4|2--4-4--7|
|2--4-4--4|2-2-2-2|2--4-4--4|2--4-4--7|
|2--4-4--4|2-2-2-2|2--4-4--4|2--4-4--7|
 |       |         |       |
  \     /           \     /
   \   /             \   /
     X3                X3


SOLO (Guitar 2 plays pre chorus rhythem)
[02:05 - 02:13]


(Guitar 1)

|----------------------|------------------------|----------|------|------|---------|
|-------------5---5-7-7|--10----------10--10----|(5)-14p7p5|17p7p5|19p7p5|7-----7--|
|4b-2---2-4-6---6------|-----11-9-11----------11|----------|------|------|9b11-(11)|
|-----4----------------|------------------------|-----X4---|--X4--|--X4--|---------|
|----------------------|------------------------|----------|------|------|---------|
|----------------------|------------------------|----------|------|------|---------|

CHORUS
[02:14 - 02:35]

CHORUS 2 (play palm muted bit, then come in with certain part of Chorus lead, listen to track)
[02:36 - 02:55]

|---|
|---|
|---|
|0-0|
|0-0|
|0-0|
 . .

OUTRO
[02:56 - end]

(Both Guitars)

|-------|
|-------|
|-------|
|2-4-2-4|
|2-4-2-4|
|2-4-2-4|





Comments


Popular You Me At Six tabs & chords
Crash Bass Tabs
Poker Face Bass Tabs
Bite My Tongue 1 Chords
Save It For The Bedroom 3 Chords
Stay With Me 2 Chords
Always Attract 3 Tabs
If I Were In Your Shoes 2 Tabs
The Swarm 2 Tabs
Trophy Eyes Tabs
Bite My Tongue Ukulele


Song lyrics



↑ Back to top | Tablatures and chords are parodies/interpretations of the original songs. You may use it for private study, scholarship, research or language learning purposes only
© 2014 AZChords.com Contact us | Privacy policy | DMCA | Add/correct tabs | Request tabs | Top 50 tabs