» » »

Brother Bass tabs (ver.1)

Artists:  A B C D E F G H I J K L M N O P Q R S T U V W X Y Z # 

Brother Bass tabs (ver.1)

You Me At Six
Rating:
0/5 (0 votes)

Hard to play? Try these video lessons and learn fast.
                Brother - You Me at Six

Tuning - Drop D

Intro
G|-----------------------|x3|-------------|
D|-----------------------|x3|-------------|
A|--44-00----------------|x3|--44-00------|
D|----------44---4-44-22-|x3|----------44-|

Verse 1
G|-------------------------|x7|------------------------------|
D|-------------------------|x7|------------------------------|
A|--44-00------------------|x7|-44-00------------------------|
D|----------44---4-44-22---|x7|---------44---4-44-2-/6-----4~|

Chorus
G|----------------------|
D|----------------------|
A|--4(x32)-0(x16)-------|
D|----------------------|

Verse 2
G|-------------------------------------------------|
D|-------------------------------------------2-4---|
A|-44-22------------------44-22----------2-4-------|
D|---------44---4-44-22-----------44---4-----------|

G|--------------------|x2
D|--------------------|x2
A|44-22---------------|x2
D|-------44---4-44-22-|x2

G|----------------------|x3|--------------------------------------------|
D|----------------------|x3|--------------------------------------------|
A|-44-00----------------|x3|-44-00--------------------------------------|
D|---------44---4-44-22-|x3|---------44---4-44-2-/6-----4~----6~----4~--|

Chorus
G|-----------------|x2
D|-----------------|x2
A|--4(x32)-0(x32)--|x2
D|-----------------|x2
 
G|----------------|x4
D|----------------|x4
A|-4(x16)-0(x16)--|x4
D|----------------|x4

Final Chorus
G|-------------------------------------------------------|
D|-------------------------------------------------------|
A|----0(x32)-4~------0(x32)-4(x16)-0(x16)-4(x16)-0(x16)--|
D|-------------------------------------------------------|

Outro
G|-----------------------|x3|-------------|
D|-----------------------|x3|-------------|
A|--44-00----------------|x3|--44-00------|
D|----------44---4-44-22-|x3|----------44-|
            
Hard to play? Try these video lessons and learn fast. | Correct




comments powered by Disqus
↑ Back to top | Tablatures and chords are parodies/interpretations of the original songs. You may use it for private study, scholarship, research or language learning purposes only