>
 >
Blue Eyes Don't Lie

Blue Eyes Don't Lie Guitar Tabs

You Me At Six - Blue Eyes Don't Lie chords, tabs, tablatures, lyrics

Guitar lessons | Add/correct | Request | Top 50 tabs Artists:  A B C D E F G H I J K L M N O P Q R S T U V W X Y Z 0-9

Blue Eyes Don't Lie Guitar Tabs – You Me At Six

CD, Sheet music, Poster

Do you like Blue Eyes Don't Lie? Share with your friends now
Tabs
Tuning - Drop D

INTRO
E----------------------------------------------------|
B----------------------------------------------------|
G-X---X--X--X--X-X-X--X-X---X---X--X--X--X-X-X--X-X--|
D-12-10--9-10--5-5-5--5-5---12-10--9-10--5-5-5--7-7--|
A-10--8--7--8--3-3-3--3-3---10--8--7--8--3-3-3--5-5--|
E----------------------------------------------------|

E---------------------------------------------------------|
B---------------------------------------------------------|
G-X---X--X--X--X-X-X--X-X--X-X-X-X-X-X-X-X-X-X-X-X-X-X-X--|
D-12-10--9-10--5-5-5--5-5--141414141414141417171717121212-|
A-10--8--7--8--3-3-3--3-3--121212121212121215151515101010-|    x2
E---------------------------------------------------------|

VERSE
E----------------------------------------------------------|
B----------------------------------------------------------|
G-X--X-X--X~----X--X-X--X~----X--X-X--X~----X--X-X---X--X~-|
D-9-1010-10~----9-1010-10~----9-1010-10~----9-1010--12-12~-|
A-7--8-8--8~----7--8-8--8~----7--8-8--8~----7--8-8--10-10~-|  x2
E----------------------------------------------------------|

CHORUS
E--------------------------------------|
B--------------------------------------|
G--------------------------------------|
D-0-00-000-2-22-222-3-33-333-5-55-5555-|
A-0-00-000-2-22-222-3-33-333-5-55-5555-|   x4
E-0-00-000-2-22-222-3-33-333-5-55-5555-|

E-----------------------------------|
B-----------------------------------|
G-----------------------------------|
D-33333-33333-3333-55555-55555-5555-|
A-33333-33333-3333-55555-55555-5555-|   x2
E-33333-33333-3333-55555-55555-5555-|

VERSE 2
E----------------------------------------------------------|
B----------------------------------------------------------|
G-X--X-X--X~----X--X-X--X~----X--X-X--X~----X--X-X---X--X~-|
D-9-1010-10~----9-1010-10~----9-1010-10~----9-1010--12-12~-|
A-7--8-8--8~----7--8-8--8~----7--8-8--8~----7--8-8--10-10~-|
E----------------------------------------------------------|

E---------------------------------------------------------|
B---------------------------------------------------------|
G-X--X-X-X-X-X-X-X-X-X-X-X-X-X-X--X-X-X-X-X-X-X-X-X-X-X-X-|
D-9-101010101010101010101010-9-9-101010101010101010101010-|
A-7--8-8-8-8-8-8-8-8-8-8-8-8-7-7--8-8-8-8-8-8-8-8-8-8-8-8-|
E---------------------------------------------------------|
      pm------   -----   ---        -------   -----   ---

E-------------------------------------------------------------|
B-------------------------------------------------------------|
G-X-X--X-X-X-X-X-X-X-X-X-X-X-X-X-X--X-X-X-X-X--X-X-X-X-X-X-X--|
D-9-9-101010101010101010101010-9-9-1010101010-12121212121212--|
A-7-7--8-8-8-8-8-8-8-8-8-8-8-8-7-7--8-8-8-8-8-10101010101010--|
E-------------------------------------------------------------|
        pm------   -----   ---        ------------------------|

CHORUS
E--------------------------------------|
B--------------------------------------|
G--------------------------------------|
D-0-00-000-2-22-222-3-33-333-5-55-5555-|
A-0-00-000-2-22-222-3-33-333-5-55-5555-|   x2
E-0-00-000-2-22-222-3-33-333-5-55-5555-|

E-------------------------------------|
B-------------------------------------|
G-------------------------------------|
D-00000000-22222222-33333333-55555555-|
A-00000000-22222222-33333333-55555555-|    x2
E-00000000-22222222-33333333-55555555-|

BRIDGE
E-----------------------------|
B-----------------------------|
G-XXXXX--XXXX-----------------|
D-55555--5555-55-7777-7777-55-|
A-33333--3333-55-7777-7777-55-|   x4
E-------------55-7777-7777-55-|
 pm---   ---  -- ---  ---- --

E-------------------------|
B-------------------------|
G-------------------------|
D-0-0-0-2-2-2-3-3-3-5-5-5-|
A-0-0-0-2-2-2-3-3-3-5-5-5-|    x4
E-0-0-0-2-2-2-3-3-3-5-5-5-|
pm------------------------|

OUTRO
E-------------------------|
B-------------------------|
G-------------------------|
D-0-0-0-2-2-2-3-3-3-5-5-5-|
A-0-0-0-2-2-2-3-3-3-5-5-5-|    x8

END ON
E----
B----
G----
D-3~-
A-3~-
E-3~-





Comments


Popular You Me At Six tabs & chords
Stay With Me 3 Bass Tabs
Underdog Bass Tabs
This Is The First Thing Chords
Bite My Tongue 2 Tabs
Carpe Diem Tabs
If I Were In Your Shoes 2 Tabs
No One Does It Better Tabs
The Swarm Tabs
This Turbulence Is Beautiful Tabs
Reckless Ukulele


Song lyrics



↑ Back to top | Tablatures and chords are parodies/interpretations of the original songs. You may use it for private study, scholarship, research or language learning purposes only
© 2014 AZChords.com Contact us | Privacy policy | DMCA | Add/correct tabs | Request tabs | Top 50 tabs