» » »

You Me At Six, Bite My Tongue Tabs (ver.3)

Artists:  A B C D E F G H I J K L M N O P Q R S T U V W X Y Z # 

Bite My Tongue Tabs (ver.3)

You Me At Six Tabs
 Rating:
4/5 (6 votes)
Bite My Tongue lessons Tabs too difficult? Try these video lessons and learn fast
                You Me At Six - Bite My Tongue
Tuning: DADGBE

Intro:
|---------------------|
|---------------------|
|-9-9-9-9-11-11-12-12-|
|-x-x-x-x-x--x--x--x--|  x2
|-7-7-7-7-9--9--10-10-|
|---------------------|

|---------------------------------|
|---------------------------------|
|-5-5-5-5-2-2-2-2-5-5-5-5-2-2-2-2-|
|-x-x-x-x-x-x-x-x-x-x-x-x-x-x-x-x-|
|-3-3-3-3-0-0-0-0-3-3-3-3-0-0-0-0-|
|---------------------------------|

Verse:
|---------------------|
|---------------------|
|-9-9-9-9-11-11-12-12-|
|-x-x-x-x-x--x--x--x--|  x2
|-7-7-7-7-9--9--10-10-|
|---------------------|

|---------------------------------|
|---------------------------------|
|-5-5-5-5-2-2-2-2-5-5-5-5-2-2-2-2-|
|-x-x-x-x-x-x-x-x-x-x-x-x-x-x-x-x-|
|-3-3-3-3-0-0-0-0-3-3-3-3-0-0-0-0-|
|---------------------------------|

or play... (listen to the rhythm)

|-----------------------------------|
|-----------------------------------|
|-----------------------------------|
|------12-9------12-9------7------7-|
|-9-10- ----9-10------9-10---9-10---|
|-----------------------------------|

Link to Chorus:
(not 100% correct)
|-----------------|
|---7-8-7---7-8-7-|
|-4-------4-------|
|-----------------|
|-----------------|
|-----------------|

Chorus:
|---------------------------------------------------|
|---------------------------------------------------|
|---------------------------------------------------|
|-2----5----10-(12)---7----2----5----7----10-(12)---|
|-2----5----10-(12)---7----2----5----7----10-(12)---|
|-2----5----10-(12)---7----2----5----7----10-(12)---|

Verse 2:(play the rhythm)
|-----------|
|-----------|
|-----------|    x2   (they are 2's, not 22)
|-22-22-22--|
|-22-22-22--|
|-22-22-22--|

or play the solo part (wait for other part to play the 2's):
(not 100% correct)
|-------------------------------------------------------------|
|-------------------------------------------------------------|
|---------9-9-9-9----------9-9-9-9-11-12-12-14-16-14-12-14-16-|
|-------------------------------------------------------------|
|-------------------------------------------------------------|
|-------------------------------------------------------------|

Repeat Verse 2 again.

Link to Chorus:
|-----------------|
|---7-8-7---7-8-7-|
|-4-------4-------|
|-----------------|
|-----------------|
|-----------------|

Chorus:
|---------------------------------------------------|
|---------------------------------------------------|
|---------------------------------------------------|
|-2----5----10-(12)---7----2----5----7----10-(12)---|
|-2----5----10-(12)---7----2----5----7----10-(12)---|
|-2----5----10-(12)---7----2----5----7----10-(12)---|

Bridge:
|-----|
|-----|
|-----|
|-2-2-| 
|-2-2-|
|-2-2-|

or the solo part:                  repeat both parts x6
|-------------------|             
|-------------------|             
|--7-7-----7-7-7777-|             (they are 7's, not 77s)
|-------------------|             
|------7-7----------|
|-------------------|              

Second half of bridge:
|----------|
|----------|
|----------|
|-2-2------| 
|-2-2-5555-|   <- (they are 5's, not 55s)
|-2-2------|

or the solo part:                                      repeat x8
|-------------------|              
|-------------------|             
|--7-7-----7-7-7777-|   <-(they are 7's, not 77s)
|-------------------|             
|------7-7----------|
|-------------------|  

On the last repeat of this section, there is another part that plays this:
|-----------------------|
|-----------------------|
|-7-8-8-7-8-8-7-8-8-9-8-|     
|-----------------------|
|-----------------------|
|-----------------------|

When playing it, slide up and down to each fret. 

Chorus:
|---------------------------------------------------|
|---------------------------------------------------|
|---------------------------------------------------|
|-2----5----10-(12)---7----2----5----7----10-(12)---|
|-2----5----10-(12)---7----2----5----7----10-(12)---|
|-2----5----10-(12)---7----2----5----7----10-(12)---|

End on:
|-----|
|-----|
|-----|
|-2-2-|
|-2-2-|
|-2-2-|
  
or...

G |-7------|


Not all correct, but please correct me if you want to. Enjoy! 
            
Submit corrections

comments powered by Disqus
↑ Back to top | You Me At Six Tabs for Bite My Tongue. Lyrics for acoustic guitar and electric guitar. Tablatures and chords are parodies/interpretations of the original songs. You may use it for private study, scholarship, research or language learning purposes only