» » »

Bite My Tongue Tabs (ver.2)

Artists:  A B C D E F G H I J K L M N O P Q R S T U V W X Y Z # 

Bite My Tongue Tabs (ver.2)

You Me At Six
Rating:
3/5 (3 votes)

Hard to play? Try these video lessons and learn fast.
                You Me At Six
Bite My Tongue

Guitar 1 - Drop D
Guitar 2 - Drop D

Lots of overdubs in this song, also the timings of both guitars
can be tricky to hear and write down. If your having trouble let me
know and I could do the timings or make a video..



Anyways.. Enjoy! And don't forget to rate! Thanks :D


GUITAR 1

###Verse###
[00:00 - 00:40]
                        
|---------------|-------------------|
|---------------|-------------------|
|---------------|-------------------|
|9-9-9-9-9-9-9-7|7-7-7-7--7--7--7--7|  x2
|7-7-7-7-7-7-7-7|9-9-9-10-10-10-10-7|
|---------------|-------------------|
 . . . . . . . . . . . .  .  .  .  .
 ^
 Stab on the very first time

|----------------------|---------------|
|----------------------|---------------|
|----------------------|---------------|
|10-10-10-10-10-10-10-7|7-7-7-7-7-7-7-7| x2
|10-10-10-10-10-10-10-7|7-7-7-7-7-7-7-7|
|10-10-10-10-10-10-10-7|7-7-7-7-7-7-7-7|

|-----|
|-----|
|-----|
|7-7-7|  
|5-5-5|
|-----|

x3


###Chorus###
[00:43 - 01:10]

(The rhythms here are difficult to tab out, just listen to it
carefully, it follows the drums. Ive just listed the chords here)
|------------------------------|-------------------------|
|------------------------------|-------------------------|
|------------------------------|-------------------------|
|2-----5-----5------2-----7-7-7|2-----5-----7-----5-----7|
|2-----5-----3------0-----5-5-5|2-----5-----7-----3-----5|
|2-----5-----------------------|2-----5-----7------------|

###Verse 2###
[01:10 - 01:36]
                x2
|-----------------|---------------------|---------------------|
|-----------------|---------------------|---------------------|
|-----------------|---------------------|---------------------|  x2
|2-2----2-2----2-2|5 x16---2 x12-----0--|5 x16---7-x12-----0--|
|2-2----2-2----2-2|3-------0---------0--|3-------5---------0--|
|2-2----2-2----2-2|------------------0--|------------------0--|
                             ^                      ^
                        First time bar        Second time bar

###Pre Chorus###
[01:36 - 01:43]

|-------|
|-------|
|-------|
|2------|   x2
|2------|
|2------|

###Chorus###
[01:43 - 02:10]


###Bridge###
[02:10 - 02:56]

|--------|
|--------|
|--------|
|2---2---|  x6
|2---2---|
|2---2---|

|------------------------------------------|
|------------------------------------------|
|------------------------------------------|
|2---2--------------2---0------------------| x4
|2---2--------------2---0------------------|
|2---2---7*-7*-7*---2---0----7*-7*-7*-7*-7*|

|-------------------------------|
|-------------------------------|
|-------------------------------|
|2---2-0-2---0-2---2-2-2-0-0-0-0| x4
|2---2-0-2---0-2---2-2-2-0-0-0-0|
|2---2-0-2---0-2---2-2-2-0-0-0-0|

(on the last time you could play this instead..)
|---------------------------------------|
|---------------------------------------|
|---------------------------------------|
|---------------------------------------|
|5-7-7-5-7-7-5-7----7-7-7-7b8-8-8-r7-7-7|
|---------------------------------------|


###Chorus###
[02:56 - END]

(Slight difference in this chorus, before you hit the first chord
of the chorus, the first chord in the 2nd round and the end chord,
you slide into it from the octave power chord from fret 14,
should be like this..)

|-----------|
|-----------|
|-----------|
|14\---2---2|
|14\---2---2|
|14\---2---2|
 
 1.....2...3
^
this is the count of the first bar, then goes into the normal chords

Do this for one more time and hold the last E chord to end.


GUITAR 2


###Verse###
[00:13 - 00:40]
                         x2                          x2
|------10------------------|---------------------------|
|---------------------12---|------10------12------10---|
|11-12---------------------|11-12----------------------|     x2
|--------------------------|---------------------------|
|--------------------------|---------------------------|
|--------------------------|---------------------------|

###Pre Chorus###
[00:40 - 00:43]

(let all strings ring, clean sound)
|------------------|
|------8---7-------|
|--------------9---|
|----9---9---9-----|
|7-7---------------|
|------------------|

###Chorus###
[00:43 - 01:10]

(May end up editing this part when I see a live video of them playing it,
hard to hear whats going on here!)
                            x3


|----------------17-----------|17--------17--------17--------17-----|
|-----------------------19----|-----19--------19--------19--------19|
|-----------------------------|-------------------------------------|
|17h18-17---------------------|-------------------------------------| x2
|-----------18----------------|-------------------------------------|
|-----------------------------|-------------------------------------|

###Verse 2###
[01:10 - 01:36]
                
|-----------------|0-0-0-0-0-0-0|
|-----------------|5-5-5-5-5-5-5|
|7/9---7/9---7/9--|-------------|
|x-x---x-x---x-x--|-------------|
|5/7---5/7---5/7--|-------------|
|-----------------|-------------|
                    
|-----------------|0-0-0-0-0-0-0|
|-----------------|5-5-5-7-7-7-7|
|7/9---7/9---7/9--|-------------|
|x-x---x-x---x-x--|-------------|
|5/7---5/7---5/7--|-------------|
|-----------------|-------------|

|0-0-0-0-0-0-0-0|0-0-0-0-0-0-0-0|0--0--0--0--0--0--0--0-|
|8-8-8-8-8-8-8-8|7-7-7-7-8-8-8-8|10-10-10-10-10-10-10-10|
|---------------|---------------|-----------------------|
|---------------|---------------|-----------------------|
|---------------|---------------|-----------------------|
|---------------|---------------|-----------------------|

|0--0--0--0-------7--|
|10-10-10-10------8--|
|--------------------|     x2
|----------------(0)-|
|----------------(0)-|
|----------------(0)-|
                             ^
(Bracket chord is guitar 1's part, just so you know when to play the doublestop)

(on the second time round this whole section,
play this on the last part instead..)

|10-10-10-10------7--|
|10-10-10-10------8--|
|--------------------|
|--------------------|
|--------------------|
|--------------------|

###Pre Chorus###
[01:36 - 01:43]

(Lots of overdubs here, you can play around with 
a clean Esus2 chord if you wish. This section is also double to length
of the first pre chorus, for the 2nd half you play
what you play in the first pre chorus)

###Chorus###
[01:43 - 02:10]

###Bridge###
[02:10 - 02:56]

(Keep this up all the way through! For a good sound, mute all the 
strings apart from that one note, and hit all the strings hard.
Also at 02:44 when Oli says a bad word.. Add the lower octave,
another D on the 5th fret of the 5th string!)

|----------------------------|
|----------------------------|
|------7-------7-----7-7-7-7-|
|----------------------------|
|----------------------------|
|----------------------------| 

###Chorus###
[02:56 - 03:26]

###ENDING###
[03:26 - END]

(Do a quick slide from the 15th fret, then back up)
|------------------14--------|
|15\--------/15----15--------|
|----------------------------|
|----------------------------|
|----------------------------|
|----------------------------|
            
Hard to play? Try these video lessons and learn fast. | Correct




comments powered by Disqus
↑ Back to top | Tablatures and chords are parodies/interpretations of the original songs. You may use it for private study, scholarship, research or language learning purposes only