» » »

You Me At Six, Bite My Tongue Tabs (ver.1)

Artists:  A B C D E F G H I J K L M N O P Q R S T U V W X Y Z # 

Bite My Tongue Tabs (ver.1)

You Me At Six Tabs
Rating:
4/5 (6 votes)
Bite My Tongue lessons Tabs too difficult? Try these video lessons and learn fast
                This is my first tab, so sorry if it's wrong!

You Me At Six
Tuning: Standard
Capo: None

Verse 1
e|---------------------------------------------------------------------------| 
B|---------------------------------------------------------------------------| 
G|---------------------------------------------------------------------------| 
D|99999999 999 9 9 9 9 9  x2 55555555 22222222 55555555 22222 777-----x3--9--| 
A|77777777 999 1010101010    33333333 00000000 33333333 00000 555---------7--| 
E|---------------------------------------------------------------------------|  

Chorus
e|---------------------------------------------------------------------------| 
B|---------------------------------------------------------------------------| 
G|---------------------------------------------------------------------------| 
D|----------------- 55555555 ---- 7777---------------------------------------| 
A|22222222 55555555 33333333 7777 5555---------------------------------------| 
E|00000000 33333333 -------- 5555 -------------------------------------------|  


e|---------------------------------------------------------------------------| 
B|---------------------------------------------------------------------------
| 
G|---------------------------------------------------------------------------| 
D|-------------------------- 5555 7777---------------------------------------| 
A|22222222 55555555 77777777 3333 5555---------------------------------------| 
E|00000000 33333333 55555555 ------------------------------------------------|  

Verse 2
e|---------------------------------------------------------------------------| 
B|---------------------------------------------------------------------------| 
G|---------------------------------------------------------------------------| 
D|--------------------5555555555555555--222222222222222-7----x2----9---------| 
A|22-22-22--22-22-22--3333333333333333--000000000000000-5----------7---2-----| 
E|00-00-00--00-00-00---------------------------------------------------0-----|  

Chorus x2

Bridge 
e|---------------------------------------------------------------------------| 
B|---------------------------------------------------------------------------| 
G|---------------------------------------------------------------------------| 
D|---------------------------------------------------------------------------| 
A|---12---12---1212---x6--------121212---1212---12121212---x8----------------| 
E|00-10-0-10-0-1010----------00-101010-0-1010-0-10101010---------------------|  

Chorus x2

Outro
e|---------------------------------------------------------------------------| 
B|---------------------------------------------------------------------------| 
G|---------------------------------------------------------------------------| 
D|--/9-------9---------------------------------------------------------------| 
A|--/7---2---7---------------------------------------------------------------| 
E|-------0-------------------------------------------------------------------|  

************************************  
/   Slide down 
************************************
            

comments powered by Disqus
↑ Back to top | You Me At Six Tabs for Bite My Tongue. Lyrics for acoustic guitar and electric guitar. Tablatures and chords are parodies/interpretations of the original songs. You may use it for private study, scholarship, research or language learning purposes only