>
 >
Always Attract Intro

Always Attract Intro Guitar Tabs

You Me At Six - Always Attract Intro chords, tabs, tablatures, lyrics

Guitar lessons | Add/correct | Request | Top 50 tabs Artists:  A B C D E F G H I J K L M N O P Q R S T U V W X Y Z 0-9

Always Attract Intro Guitar Tabs – You Me At Six

CD, Sheet music, Poster

Do you like Always Attract Intro? Share with your friends now
Tabs
                             Always Attract Intro


I havent done much tabbing before so its probably not perfect but i think this is mostly 
the other tab seemed to difficult to get your hand in the positions and sounded an 
low so yer----- :]
improve on it all you want :]


                                                                   You Me At Six

      G
      E  E  E  E  E  E  E  E     E  E  E  E  E  E  E  E
E||---------------------------|-----------7--------7-----|
B||---------8--------7--------|--8-----------8--------8--|
G||------------7--------7-----|-----7-----------7--------|
D||------9--------9--------9--|--------9-----------------|
A||--10-----------------------|--------------------------|
E||---------------------------|--------------------------|


   G
   E   E  E  E  E  E  E  E     E  E  E  E  E  E  E  E
----------------------------|-----------7--------7-----|
----------8--------7--------|--8-----------8--------8--|
-------------7--------7-----|-----7-----------7--------|
----------------9--------9--|--------9-----------------|
--10--10--------------------|--------------------------|
----------------------------|--------------------------|


  Em7
  E   E  E  E  E  E  E  E     E  E  E  E  E  E  E  E
---------------------------|--------------------------|
---------8--------7--------|--8--------7--------8-----|
------------7--------7-----|-----7--------7--------7--|
---------------9--------9--|--------9--------9--------|
--7---7--------------------|--------------------------|
---------------------------|--------------------------|


  Cadd9
  E     E  E  E   E  E  E  E     E  E   E  E  E   E  E  E
------------------------------|----------------------------|
-----------8---------8--------|--8---------7---------8-----|
--------------7---------------|-----7----------------------|
-----------------9------------|--------9---------=9--------|
--9-----9---------------9--9--|---------------9---------9--|
------------------------------|----------------------------|


   G      Well if it hurts this much...
   E   E  E                             E  E  E  E  E
-------------------------------------------------------|
----------8-----------------------------------7--------|
----------------------------------------7--------7-----|
-------------------------------------------9--------9--|
--10--10-----------------------------------------------|
-------------------------------------------------------|


  E  E  E  E  E  E  E  E      E   E  E  E  E  E  E  E
-----------7--------7-----|----------------------------|
--8-----------8--------8--|----------8--------7--------|
-----7-----------7--------|-------------7--------7-----|
--------9-----------------|----------------9--------9--|
--------------------------|--10--10--------------------|
--------------------------|----------------------------|


                             Em7
  E  E  E  E  E  E  E  E     E   E  E  E  E  E  E  E
-----------7--------7-----|---------------------------|
--8-----------8--------8--|---------8--------7--------|
-----7-----------7--------|------------7--------7-----|
--------9-----------------|---------------9--------9--|
--------------------------|--7---7--------------------|
--------------------------|---------------------------|


                             Cadd9
  E  E  E  E  E  E  E  E     E     E  E  E   E  E  E  E
--------------------------|------------------------------|
--8--------7--------8-----|-----------8---------8--------|
-----7--------7--------7--|--------------7---------------|
--------9--------9--------|-----------------9------------|
--------------------------|--9-----9---------------9--9--|
--------------------------|------------------------------|


                               C
  E  E   E  E  E   E  E  E     E     E  E  E  E  E  E  E
----------------------------|-----------8--------8-----8--|
--8---------7---------8-----|-----------8--------8-----8--|
-----7----------------------|-----------5--------5-----5--|
---------9---------9--------|--5-----5-----5--5-----5-----|
---------------9---------9--|-----------------------------|
----------------------------|-----------------------------|


  Keeping me awake                         Em11
  E                E  E  E  E  E  E  E     E    E  E  E  E  E  E  E
----------------------8--------8-----8--|----------7--------7-----7--|
----------------------8--------8-----8--|----------7--------7-----7--|
----------------------5--------5-----5--|----------7--------7-----7--|
--5----------------5-----5--5-----5-----|----------------------------|
----------------------------------------|--9----9-----9--9-----9-----|
----------------------------------------|----------------------------|


                             Em7
  E  E  E  E  E  E  E  E     E   E  E  E  E  E  E  E
--------7--------7-----7--|---------7--------7-----7--|
--------7--------7-----7--|---------8--------8-----8--|
--------7--------7-----7--|---------7--------7-----7--|
--------------------------|---------------------------|
--9--9-----9--9-----9-----|--7---7-----7--7-----7-----|
--------------------------|---------------------------|


  E  E  E  E  E  E  E  E
--------7--------7-----7--||
--------8--------8-----8--||
--------7--------7-----7--||
--------------------------||
--7--7-----7--7-----7-----||
--------------------------||


Duration Legend
---------------
W - whole
H - half
Q - quarter
E - 8th
S - 16th
T - 32nd
X - 64th
. - note dotted
|-n-|  - n-tuplets





Comments


Popular You Me At Six tabs & chords
Finders Keepers Bass Tabs
Save It For The Bedroom Bass Tabs
Stay With Me 3 Bass Tabs
Time Is Money Bass Tabs
Fireworks 3 Chords
Hard To Swallow Chords
The Consequence 4 Tabs
Time Is Money Tabs
Trophy Eyes Intro Tabs
Underdog 3 Tabs


Song lyrics



↑ Back to top | Tablatures and chords are parodies/interpretations of the original songs. You may use it for private study, scholarship, research or language learning purposes only
© 2014 AZChords.com Contact us | Privacy policy | DMCA | Add/correct tabs | Request tabs | Top 50 tabs