» » »

You Me At Six, Always Attract Tabs (ver.3)

Artists:  A B C D E F G H I J K L M N O P Q R S T U V W X Y Z # 

Always Attract Tabs (ver.3)

You Me At Six Tabs
 Rating:
3.7/5 (39 votes)
Always Attract lessons Tabs too difficult? Try these video lessons and learn fast
                Heey, this is my first tab, but I think its pretty accurate, please enjoyy.

INTRO; guitar 1

|-----------------------7-----7---|-----------------------7-----7---|
|-----8-----7-----8-------8-----8-|-----8-----7-----8-------8-----8-|
|---0---0-----0-----0-------0-----|---0---0-----0-----0-------0-----|
|-0-------0-----0-----0-----------|-0-------0-----0-----0-----------|
|---------------------------------|---------------------------------|
|---------------------------------|---------------------------------|

|---------------------------------|---------------------------------|
|-----8-----7-----8-----7-----8---|-----8-----7-----8-----7-----8~--|
|---------------------------------|---------------------------------|
|---------------------------------|---------------------------------|
|-7-7---7-7---7-7---7-7---7-7---7-|-9-9---9-9---9-9---9-9---9-9-----|
|---------------------------------|---------------------------------|

VERSE

And if it hurts this much, then it must be love,

|-----------------------7-----7---|-----------------------7-----7---|
|----8p7----7-----8-------8-----8-|----8p7----7-----8-------8-----8-|
|---0---0-----0-----0-------0-----|---0---0-----0-----0-------0-----|
|-0-------0-----0-----0-----------|-0-------0-----0-----0-----------|
|---------------------------------|---------------------------------|
|---------------------------------|---------------------------------|

and its a lottery,i can't wait to draw your name.

|---------------------------------|---------------------------------|
|-----8-----7-----8-----7-----8---|-----8-----7-----8-----7-----8~--|
|---------------------------------|---------------------------------|
|---------------------------------|---------------------------------|
|-7-7---7-7---7-7---7-7---7-7---7-|-9-9---9-9---9-9---9-9---9-9-----|
|---------------------------------|---------------------------------|Etc.

oh i'm trying to get to you, but time isn't on my side,
the truth’s the worst i could do, then i guess that i have lied.

PRE-CHORUS

keeping me awake, it's been like this now for days,

|---------------------------------|---------------------------------|
|-----5-----5-----5-----5-----5---|-----7-----7-----7-----7-----7---|
|---------------------------------|---------------------------------|
|---------------------------------|---------------------------------|
|-3-3---3-3---3-3---3-3---3-3---3-|-5-5---5-5---5-5---5-5---5-5---5-|
|---------------------------------|---------------------------------|

my heart is out at sea, my head all over the place,
 
|----------------------------------|-----------------------------------|
|-----7-----8-----10------8----7---|-----12-----10-----8-----7-----8~--|
|----------------------------------|-----------------------------------|
|----------------------------------|-----------------------------------|
|-7-7---7-7---7-7----7-7---7-7---7-|-9-9----9-9----9-9---9-9---9-9-----|
|----------------------------------|-----------------------------------|



i'm losing sense of time, and everything tastes the same,

|---------------------------------|---------------------------------|
|-----5-----5-----5-----5-----5---|-----7-----7-----7-----7-----7---|
|---------------------------------|---------------------------------|
|---------------------------------|---------------------------------|
|-3-3---3-3---3-3---3-3---3-3---3-|-5-5---5-5---5-5---5-5---5-5---5-|
|---------------------------------|---------------------------------|

i'll be home in a day, i fear thats a month too late.

|----------------------------------|--------------------------------------|
|-----7-----8-----10------8----7---|-----12-----12-----12-----12-----12~--|
|----------------------------------|--------------------------------------|
|----------------------------------|--------------------------------------|
|-7-7---7-7---7-7----7-7---7-7---7-|-9-9----9-9----9-9----9-9----9-9------|
|----------------------------------|--------------------------------------|

CHORUS

that night i slept, on your side of the bed so,

|------------------------|----------------------|
|-----3--0---------7--8--|-----3--0-------7--8--|
|------------------------|----------------------|
|------------------------|----------------------|
|------------------------|----------------------|
|--3------------7--------|--3----------7--------|

it was ready when you got home,
(  G                    G       Em      )
|--3-3-3-3-3-3-3-3-3-|--3-3-3-3-0-0-0-0-|
|--3-3-3-3-3-3-3-3-3-|--3-3-3-3-0-0-0-0-|
|--0-0-0-0-0-0-0-0-0-|--0-0-0-0-0-0-0-0-|
|--0-0-0-0-0-0-0-0-0-|--0-0-0-0-2-2-2-2-|
|--2-2-2-2-2-2-2-2-2-|--2-2-2-2-2-2-2-2-|
|--3-3-3-3-3-3-3-3-3-|--2-2-2-2-0-0-0-0-|

we're like noughts and crosses in that

|------------------------|----------------------|
|-----3--0---------7--8--|-----3--0-------7--8--|
|------------------------|----------------------|
|------------------------|----------------------|
|------------------------|----------------------|
|--3------------7--------|--3----------7--------|

opposites always attract.
(  G                    G       Em      )
|--3-3-3-3-3-3-3-3-3-|--3-3-3-3-0-0-0-0-|
|--3-3-3-3-3-3-3-3-3-|--3-3-3-3-0-0-0-0-|
|--0-0-0-0-0-0-0-0-0-|--0-0-0-0-0-0-0-0-|
|--0-0-0-0-0-0-0-0-0-|--0-0-0-0-2-2-2-2-|
|--2-2-2-2-2-2-2-2-2-|--2-2-2-2-2-2-2-2-|
|--3-3-3-3-3-3-3-3-3-|--2-2-2-2-0-0-0-0-|


VERSEx2; Guitar 2 comes in with chords, Guitar 1 same as before

  G                       G
   you've taken me to the top,
                     Em
and let me fall back south
                                Em
you've had me at the top of the pile,
                            G
and then had me kissing the ground
                        G
we've heard and seen it all,
                  Em
no ones talked us out,
                       Em
the problems that have come
                    G
haven't yet torn us down.

PRE-CHORUS; Guitar 1 same as before

Am I keeping you awake?, if i am then just say,
you can make your own decisions; you can make your own mistakes,
i'll live and let die all the promises you made,
but if you lie another time, it'll be a lie thats too late.

GUITAR 2

|------8-7--------10-8---------------------------|
|----------8-----------12------7-8-10------8-7-8-|
|-5-5---------7-7---------9-9----------7-7-------|
|------------------------------------------------|
|------------------------------------------------|
|------------------------------------------------|

-CHORUS; Guitar 1 same as before, 
Then finish on Gmaj chord ~ 

END SECTION; Guitar 1

|-----------------------------------------|
|-----------------3------------------3----|
|-0-0-0-0-0-0-0-0----0-0-0-0-0-0-0-0------|
|-----------------------------------------|
|-----------------------------------------|
|-----------------------------------------|

|-----------------------------------------|
|-----------------3------------------3----|
|-----------------------------------------|
|-0-0-0-0-0-0-0-0----0-0-0-0-0-0-0-0------|
|-----------------------------------------|
|-----------------------------------------|

|-----------------------------------------|
|-----------------------------------------|
|-----------------0-------------------0---|
|-----------------------------------------|
|-3-3-3-3-3-3-3-3-----3-3-3-3-3-3-3-3-----|
|-----------------------------------------|

|-----------------------------------------|
|-----------------------------------------|
|-----------------0-------------------0---|
|-----------------------------------------|
|-----------------------------------------|
|-3-3-3-3-3-3-3-3-----3-3-3-3-3-3-3-3-----| x3

And then CHORDS

G
You always have your way,
D
for now its too soon for you to say,
C                           G
will we be always, always?

GUITAR 2 comes in

|------------------------------------------------------|
|-10-10-10-8-8-8-7-7-8-8-8-8-7-7-7-7-------------------|
|------------------------------------7-9-7-7~-7-9-7-7~-|
|------------------------------------------------------|
|------------------------------------------------------|
|------------------------------------------------------|

|-10-10-10-8-8-8-7-7-8-8-8-7-7-7-7-------------------|
|----------------------------------7-8-7-----7-8-7---|
|-----------------------------------------7~-------7~|
|----------------------------------------------------|
|----------------------------------------------------|
|----------------------------------------------------|

|------------------------------------------------------|
|-10-10-10-8-8-8-7-7-8-8-8-8-7-7-7-7-------------------|
|------------------------------------7-9-7-7~-7-9-7-7~-|
|------------------------------------------------------|
|------------------------------------------------------|
|------------------------------------------------------|

|-10-10-10-8-8-8-7-7-8-8-8-7-7-7-7--------------------7-7-8-8-8-10-10-10|
|----------------------------------7-7-8-8-8-10-10-10-------------------|
|-----------------------------------------------------------------------|
|-----------------------------------------------------------------------|
|-----------------------------------------------------------------------|
|-----------------------------------------------------------------------|

|------------------------------------------------------|
|-10-10-10-8-8-8-7-7-8-8-8-8-7-7-7-7-------------------|
|------------------------------------7-9-7-7~-7-9-7-7~-|
|------------------------------------------------------|
|------------------------------------------------------|
|------------------------------------------------------|

|-10-10-10-8-8-8-7-7-8-8-8-7-7-7-7-------------------|
|----------------------------------7-8-7-----7-8-7---|
|-----------------------------------------7~-------7~|
|----------------------------------------------------|
|----------------------------------------------------|
|----------------------------------------------------|

End (:
Have fun playing.
            
Submit corrections

comments powered by Disqus
↑ Back to top | You Me At Six Tabs for Always Attract. Lyrics for acoustic guitar and electric guitar. Tablatures and chords are parodies/interpretations of the original songs. You may use it for private study, scholarship, research or language learning purposes only