» » »

You Me And Everyone We Know, I Can Get Back Up Now Tabs (ver.1)

Artists:  A B C D E F G H I J K L M N O P Q R S T U V W X Y Z # 

I Can Get Back Up Now Tabs (ver.1)

You Me And Everyone We Know Tabs
 Rating:
4.3/5 (6 votes)
I Can Get Back Up Now lessons Tabs too difficult? Try these video lessons and learn fast
                -------------------------------------------------------------------------------
             I Can Get Back Up Now - You, Me, and Everyone We Know
-------------------------------------------------------------------------------

Tuning: Drop D (It can be in standard but when i tabbed it, i didn't feel like changing the tuning.

This is my first tab, its a great song, and I'm pretty sure this is about right, feel 
to leave any questions/comments and leave some feedback.

INTRO
e|-----------------------------------------|
B|-----------------------------------------|
G|11-11-11-11-8-8-6-6-8-8-6-6-8-8-4-6-8----|
D|-9--9--9--9-9-9-8-8-9-9-8-8-9-9-6-8-9----|
A|-----------------------------------------|
D|-----------------------------------------|
  ^---------------PM-----------------------|

e|-----------------------------------------|
B|-----------------------------------------|
G|11-11-11-11-8-8-6-6-8-8-6-6-4-4-8-6-4----|
D|-9--9--9--9-9-9-8-8-9-9-8-8-6-6-9-8-6----|
A|-----------------------------------------|
D|-----------------------------------------|  then repeat both parts
  ^---------------PM-----------------------|


e|----------------------------------------------|
B|----------------------------------------------|
G|11-8-6-4-1-4-6-8-6-8----11-8-6-4-6-8-6-8-6-4--|
D|----------------------------------------------|  x2
A|----------------------------------------------|
D|----------------------------------------------|

repeat intro part once for verse then

e|-------------------------------------------------------------------------|
B|-------------------------------------------------------------------------|
G|-4-4-4-4-4-4-4-4-4-4-/-6-6-6-6-6-6-6-6-9-9-9-9-8-8-9-9-8-8-9-9-8-8-8-8-8-|
D|-4-4-4-4-4-4-4-4-4-4-/-6-6-6-6-6-6-6-6-9-9-9-9-8-8-9-9-8-8-9-9-8-8-8-8-8-|
A|-2-2-2-2-2-2-2-2-2-2-/-4-4-4-4-4-4-4-4-7-7-7-7-6-6-7-7-6-6-7-7-6-6-6-6-6-|
D|-------------------------------------------------------------------------|
the repetitions aren't exact. just listen for the chord changes


e|------------------------------------------------------------|
B|------------------------------------------------------------|
G|------------------------------------------------------------|
D|-6-6-6-6-6-6-6-6-4-4-4-4-4-4-4-2----------------------------|
A|-6-6-6-6-6-6-6-6-4-4-4-4-4-4-4-2----------------------------|
D|-6-6-6-6-6-6-6-6-4-4-4-4-4-4-4-2----------------------------|
(So why are still saying I'm not, when I already am...)
(And why are still saying we won't, when we already are...)

e|-----------------------------------------------------------|
B|-----------------------------------------------------------|
G|-----------------11-----------------------11---------------|
D|---------11--13------13-----------11--13-------13--11------|
A|-11--14------------------11---14---------------------------|
D|-----------------------------------------------------------|
(You keep on kicking me down, You keep on kicking me down)

on the last 'Ain't it a shame we're so young and insane', the buildup thing
e|----------|
B|----------|
G|----------|
D|--2-------|
A|--2-(x16)-|
D|--2-------|
    *PM

e|----------------------------------------------------------------------------|
B|----------------------------------------------------------------------------|
G|-4-4-4-4-4-4-4-4-4-4-/-6-6-6-6-6-6-6-6-9-9-9-9-8-8-9-9-8-8-9-9-8-8-8-8-8----|
D|-4-4-4-4-4-4-4-4-4-4-/-6-6-6-6-6-6-6-6-9-9-9-9-8-8-9-9-8-8-9-9-8-8-8-8-8(x2)|
A|-2-2-2-2-2-2-2-2-2-2-/-4-4-4-4-4-4-4-4-7-7-7-7-6-6-7-7-6-6-7-7-6-6-6-6-6----|
D|----------------------------------------------------------------------------|
same as 1st verse, just play it twice

e|------------------------------------------------------------|
B|------------------------------------------------------------|
G|------------------------------------------------------------|
D|-6-6-6-6-6-6-6-6-4-4-4-4-4-4-4-2----------------------------|
A|-6-6-6-6-6-6-6-6-4-4-4-4-4-4-4-2----------------------------|
D|-6-6-6-6-6-6-6-6-4-4-4-4-4-4-4-2----------------------------|
(So why are still saying I'm not, when I already am...)
(And why are still saying we won't, when we already are...)

e|-----------------------------------------------------------|
B|-----------------------------------------------------------|
G|-----------------11-----------------------11---------------|
D|---------11--13------13-----------11--13-------13--11------|
A|-11--14------------------11---14---------------------------|
D|-----------------------------------------------------------|
(You keep on kicking me down, You keep on kicking me down)


e|-----------------------------------|
B|-----------------------------------|
G|-----------------------------------|
D|-9------4------7------2------------|
A|-9(x8)--4(x4)--7(x4)--2(x16)-------|
D|-9------4------7------2------------| (x4)
Ain't it a shame, we're so young and insane?

then just play the intro part for max's verse
e|-----------------------------------------|
B|-----------------------------------------|
G|11-11-11-11-8-8-6-6-8-8-6-6-8-8-4-6-8----|
D|-9--9--9--9-9-9-8-8-9-9-8-8-9-9-6-8-9----|
A|-----------------------------------------|
D|-----------------------------------------|
  ^---------------PM-----------------------|

e|-----------------------------------------|
B|-----------------------------------------|
G|11-11-11-11-8-8-6-6-8-8-6-6-4-4-8-6-4----|
D|-9--9--9--9-9-9-8-8-9-9-8-8-6-6-9-8-6----|
A|-----------------------------------------|
D|-----------------------------------------|
  ^---------------PM-----------------------|


and for the last chorus
e|-----------------------------------|
B|-----------------------------------|
G|-----------------------------------|
D|-9------4------7------2------------|
A|-9(x8)--4(x4)--7(x4)--2(x16)-------|
D|-9------4------7------2------------| (x4)


you can play around with that part for the last two lines. or just let each chord ring. then...
end on:

e|------|
B|------|
G|------|
D|--2---|
A|--2---|
D|--2---|  let ring

alright. hope this was helpful. feel free to leave feedback/stuff. i might have a video 

| /  slide up
| \  slide down
| h  hammer-on
| p  pull-off
| ~  vibrato
| +  harmonic
| x  Mute note
===============================================================================
            
Submit corrections

comments powered by Disqus
↑ Back to top | You Me And Everyone We Know Tabs for I Can Get Back Up Now. Lyrics for acoustic guitar and electric guitar. Tablatures and chords are parodies/interpretations of the original songs. You may use it for private study, scholarship, research or language learning purposes only