» » »

You Me And Everyone We Know, Could It Be Sunstroke? Tabs (ver.1)

Artists:  A B C D E F G H I J K L M N O P Q R S T U V W X Y Z # 

Could It Be Sunstroke? Tabs (ver.1)

You Me And Everyone We Know Tabs
 Rating:
4/5 (4 votes)
Could It Be Sunstroke? lessons Tabs too difficult? Try these video lessons and learn fast
1
                Could it be Sunstroke?
You, Me, and Everyone we know

Should be right on, I love this band so if you have any other songs by them or 


Intro

e| -------------------------------------|
B| -------------------------------------|
G| -------------------------------------|
D| -------------------------------------|
A| -1-1-4-4--------1-1-4-4--------------|
E| ---------2-2------------2-2--4-4-4/5-|

Verse 1

e| --------------------------------------------------|
B| --------------------------------------------------|
G| --------------------------------------------------|    (x2)
D| --------------------------------------------------|
A| -1-1-4-4------------------1-1-4-4-----------------|
E| ---------2-2--4-4/5---------------2-2--4-4/5-5----|

Pre-Chorus

e| -2----4----4----1----2---4-|
B| -2----4----6----2----2---6-|
G| -3----5----5----3----3---5-|
D| -4----6----6----3----4---6-|
A| -4----6--------------4-----|
E| ---------------------------|

Chorus

e| -----------------------------------|
B| -----------------------------------|
G| -6------66--------------66---------|
D| -6--44--66--66-7-8--44--66-66-6----|    (x2)
A| -4--44--44--66-7-8--44--44-66-6----|
E| ----22------44-5-6--22-----44-4----|

Pre-Verse

e| -------------------------------------------------------------------------|
B| -------------------------------------------------------------------------|
G| -------------------------------------------------------------------------|
D| -------------------------------------------------------------------------|
A| -1-1-4-4------1-1-4-4---------------1-1-4-4-----4/6--1-1-4-4-------------|
E| ---------2-2-----------2-2--4-4/5-----------2-2--------------2-2--4-4/5--|

Verse 2

e| -----------------------------------------|
B| -----------------------------------------|
G| -33-66------------------33-66------------|    (x2)
D| -33-66-4--6-67-7--------33-66-4--6-67-7--|
A| -11-44-4--6-67-7--------11-44-4--6-67-7--|
E| -------2--4-45-5--------------2--4-45-5--|

Pre-Chorus

e| -2----4----4----1----2---4-|
B| -2----4----6----2----2---6-|
G| -3----5----5----3----3---5-|
D| -4----6----6----3----4---6-|
A| -4----6--------------4-----|
E| ---------------------------|

Chorus

e| -----------------------------------|
B| -----------------------------------|
G| -6------66--------------66---------|
D| -6--44--66--66-7-8--44--66-66-6----|    (x4)
A| -4--44--44--66-7-8--44--44-66-6----|
E| ----22------44-5-6--22-----44-4----|

Bridge                             End On

e| -2----4----4----1----         --2----4--|
B| -2----4----6----2----         --2----6--|
G| -3----5----5----3----  (x3)   --3----5--|
D| -4----6----6----3----         --4----6--|
A| -4----6--------------         --4-------|
E| ---------------------         ----------|

Chorus

e| -----------------------------------|
B| -----------------------------------|
G| -6------66--------------66---------|
D| -6--44--66--66-7-8--44--66-66-6----|    (x3)
A| -4--44--44--66-7-8--44--44-66-6----|
E| ----22------44-5-6--22-----44-4----|


e| -----------------------------------|
B| -----------------------------------|
G| -8------88---------------88--------|     (x2)
D| -8--66--88--88-9-10--66--88-88-----|
A| -6--66--66--88-9-10--66--66-88-----|
E| ----44------66-7-8--44------66-----|
            
Submit corrections

comments powered by Disqus
↑ Back to top | You Me And Everyone We Know Tabs for Could It Be Sunstroke?. Lyrics for acoustic guitar and electric guitar. 1 Tablatures and chords are parodies/interpretations of the original songs. You may use it for private study, scholarship, research or language learning purposes only