» » »

You Me And Everyone We Know, Carolina Heat Tabs (ver.1)

Artists:  A B C D E F G H I J K L M N O P Q R S T U V W X Y Z # 

Carolina Heat Tabs (ver.1)

You Me And Everyone We Know Tabs
 Rating:
3.6/5 (7 votes)
Carolina Heat lessons Tabs too difficult? Try these video lessons and learn fast
1
                                                  CAROLINA HEAT
                  As recorded by You, Me, and Everyone We Know
                 (From the 2006 EP PARTY FOR THE GROWN AND SEXY)

Words by Ben Liebsch

Music by You, Me, and Everyone We Know

Gtr I (Db Ab Db Gb Bb Eb) - 'Acoustic'
Gtr II (Db Ab Db Gb Bb Eb) - 'Distortion 1'
Gtr III (Db Ab Db Gb Bb Eb) - 'PM'
Gtr IV (Db Ab Db Gb Bb Eb) - 'Overdrive'

   Verse
    Moderately Q=156
    Dmaj7
   4/4
    Gtr I
||--------------------|---------------------|
||o-7-7-x-------------|---------------------|
||--7-7-x-6-(6)-6-x-7-|-(7)-7-x-6-(6)-6-6-6-|
||--7-7-x-7-(7)-7-x-7-|-(7)-7-x-7-(7)-7-7-7-|
||o-------5-(5)-5-x---|---------5-(5)-5-5-5-|
||--------------------|---------------------|


|-------------------|----------------------|
|-7-7-x-------------|----------------------|
|-7-7-x-6-(6)-6-x-7-|-(7)-7-x-6-(6)-6-6-6--|
|-7-7-x-7-(7)-7-x-7-|-(7)-7-x-7-(7)-7-7-7--|
|-------5-(5)-5-x-5-|-(5)-5-x-5-(5)-5-5-5--|
|-------------------|----------------------|


  F#m             Dmaj7/F#    F#m       DmajGsus2
|-------------------|---------------------|
|-------------------|---------------------|
|-6-6-x-6-(6)-6-x-7-|-(7)-7-x-6-(6)-6-6-6-|
|-7-7-x-7-(7)-7-x-7-|-(7)-7-x-7-(7)-7-7-7-|
|-4-4-x-4-(4)-4-x-4-|-(4)-4-x-4-(4)-4-4-0-|
|-4-4-x-4-(4)-4-x-4-|-(4)-4-x-4-(4)-4-4-0-|


        Dmaj7/G   Gsus2
|---------------------|----------------------||
|------------------8--|---------------------o||
|-7-7-x-6-(6)-6-x--7--|-(7)-(7)-7--x-x-x-x---||
|-7-7-x-7-(7)-7-x-(7)-|-(7)--7--7--x-x-x-x---||
|-5-5-x-5-(5)-5-x-----|------5--5--x-x-x-x--o||
|-5-5-x-5-(5)-5-x-----|------5--5--x-x-x-x---||


 Chorus
  G5        (A(BA5      D5             Dmaj7             A5B5          G
  PM------|
|-----------------|------------------|-----------------|------------------|
|-----------------|------------------|-----------------|------------------|
|-----------------|------------------|-----------------|------------------|
|-----------------|-------0--------0-|-----------------|------9--9---9-9--|
|-5-5-5-5-5-7-9-7-|-(7)-0-0--0-0-0-0-|-4-4-4-4-4S5-5-5-|-7-/9-9--9-9-9-5--|
|-5-5-5-5-5-----7-|-(7)-0-0--0-0-0-0-|-0-0-0-0-0-0-0-0-|-7-/9-9--9-9-9-5--|


              Gsus2   D5               Dmaj7             B5   D  (F#mG5
|-------------------|----------------|-----------------|----------------|
|-------------------|----------------|-----------------|----------------|
|-------------------|----------------|-----------------|---4------------|
|-(9)-9-9-9-9-7-7-7-|-7-7-0--0-0-0-0-|-----------------|-4-4--4------5--|
|-(5)-5-5-5-5-5-5-5-|-0-0-0--0-0-0-0-|-4-4-4-4-4S5-5-5-|-2-2--5--9\--5--|
|-(5)-5-5-5-5-5-5-5-|-0-0-0--0-0-0-0-|-0-0-0-0-0-0-0-0-|-------------5--|


           A5B5A5  D5               Dmaj7             A5B5          G
|----------------|----------------|-----------------|------------------|
|----------------|----------------|-----------------|------------------|
|----------------|----------------|-----------------|------------------|
|-(5)------------|-----0--0-----0-|-----------------|------9--9---9-9--|
|-(5)----5-7-9-7-|-x-x-0--0-0-0-0h|=4-4-4-4-4S5-5-5-|-7-/9-9--9-9-9-5--|
|-(5)----5-7-9-7-|-x-x-0--0-0-0-0-|---0-0-0-0-0-0-0-|-7-/9-9--9-9-9-5--|


                                                To Coda
              Gsus2   D5               Dmaj7             B5   D  F#m G5
|-------------------|----------------|-----------------|----------------|
|-------------------|----------------|-----------------|----------------|
|-------------------|----------------|-----------------|----------------|
|-(9)-9-9-9-9-7-7-7-|-7-7-0--0-0-0-0-|-----------------|-4-4--4--7\--5--|
|-(5)-5-5-5-5-5-5-5-|-0-0-0--0-0-0-0-|-4-4-4-4-4S5-5-5-|-2-2--5--9\--5--|
|-(5)-5-5-5-5-5-5-5-|-0-0-0--0-0-0-0-|-0-0-0-0-0-0-0-0-|-------------5--|


       D.C. al Coda
|------------|---------||
|------------|---------||
|------------|---------||
|-(5)--------|-(5)-----||
|-(5)--------|-(5)-----||
|-(5)--------|-(5)-----||


  &
  B5   D  (F#m)    G5                     D5
                   Gtrs I, II             Gtr III
                                          PM----|
|----------------|-----------|--------------------||
|----------------|-----------|--------------------||
|----------------|-^7--------|-(7)----(7)---------||
|-4-4--4---------|-^5--------|-(5)----(5)---------||
|-2-2--5--9-(9)--|-^5--------|-(5)----(5)-0-0-0-0-||
|----------------|-^5--------|-(5)----(5)-0-0-0-0-||


   Breakdown
    A5B5                     D5  F#G5  F#G5                     A5    B5
    PM----------------------------------------------------------------|
||----------------|------------------|---------------|-------------------||
||o---------------|------------------|---------------|------------------o||
||----------------|------------------|---------------|-------------------||
||----------------|------------------|---------------|-------------------||
||o-7---9--9---9--|-9---9--9-0-0-4-5-|-4---5--5---5--|-5---5--5-7-7-7-9-o||
||--7-9-9--9-9-9--|-9-9-9--9-0-0-4-5-|-4-5-5--5-5-5--|-5-5-5--5-7-7-7-9--||


 Bridge
  A5B5                                       D5  F#G5
  PM--------------------------------------------------
|-------------------------------|--------------------|
|-------------------------------|--------------------|
|-------------------------------|--------------------|
|-------------------------------|--------------------|
|-7------9-------9-------9------|--9----9--9-0-0-4-5-|
|-7--9---9-------9---9---9------|--9--9-9--9-0-0-4-5-|
|
| Gtr IV
|                                  >
|-------------------------------|--------------------|
|-------------------------------|--------------------|
|-------------------------------|--------------------|
|-------------------------------|--------------------|
|---(5)-(5)-(5)-(5)-(5)-(5)-(5)-|-(5)----------------|
|-------------------------------|--------------------|


  F#5 G5                       A5    B5
 ------------------------------------|
|-----------------|---------------------|
|-----------------|---------------------|
|-----------------|---------------------|
|-----------------|---------------------|
|--4----5--5---5--|--5----5--5-7-7-7-9--|
|--4--5-5--5-5-5--|--5--5-5--5-7-7-7-9--|
|
|-----------------|---------------------|
|-----------------|---------------------|
|-----------------|---------------------|
|-----------------|---------------------|
|-(5)-------------|-(5)-----------------|
|-----------------|---------------------|


  A5B5                          D5  F#G5
  PM-------------------------------------
|------------------|--------------------|
|------------------|--------------------|
|------------------|--------------------|
|------------------|--------------------|
|-7---9---9----9---|--9----9--9-0-0-4-5-|
|-7-9-9---9-9--9---|--9--9-9--9-0-0-4-5-|
|
|                     >
|------------------|--------------------|
|------------------|--------------------|
|---------2--------|--------------------|
|-----4-----4------|--------------------|
|---5---5-----(5)--|-(5)----------------|
|------------------|--------------------|


  F#5 G5                       A5    B5
 ------------------------------------|
|-----------------|---------------------|
|-----------------|---------------------|
|-----------------|---------------------|
|-----------------|---------------------|
|--4----5--5---5--|--5----5--5-7-7-7-9--|
|--4--5-5--5-5-5--|--5--5-5--5-7-7-7-9--|
|
|-----------------|---------------------|
|-----------------|---------------------|
|-----------------|---------------------|
|-----------------|---------------------|
|-(5)-------------|-(5)-----------------|
|-----------------|---------------------|


    A5B5                           D5  F#G5
    PM--------------------------------------
||------------------|----------------------|
||o-----------------|----------------------|
||------------------|----------------------|
||------------------|----------------------|
||o-7---9---9---9---|--9-----9---9-0-0-4-5-|
||--7-9-9---9-9-9---|--9--9--9---9-0-0-4-5-|
|
||------------------|----------------------|
||o-----------------|----------------------|
||----------2-----2-|-(2)------------------|
||------4-----4-----|-----4-(4)--0h2---4---|
||o---5---5-----5---|----------------------|
||------------------|----------------------|


  F#5 G5                             A5    B5
 ------------------------------------------|
|-------------------|------------------------|
|-------------------|------------------------|
|-------------------|------------------------|
|-------------------|------------------------|
|--4----5---5---5---|--5-------5---5-7-7-7-9-|
|--4--5-5---5-5-5---|--5---5---5---5-7-7-7-9-|
|
|-------------------|------------------------|
|-------------------|------------------------|
|-----------2-----2-|-(2)--------------------|
|-(4)---4-----4-----|-----(4)-(4)------------|
|-----5---5-----5---|------------------------|
|-------------------|------------------------|


  A5B5                         D5  F#G5
  PM------------------------------------
|-----------------|--------------------|
|-----------------|--------------------|
|-----------------|--------------------|
|-----------------|--------------------|
|-7---9---9---9---|--9----9--9-0-0-4-5-|
|-7-9-9---9-9-9---|--9--9-9--9-0-0-4-5-|
|
|-----------------|----------0---------|
|-----------------|----------------2---|
|---------2-----2-|-(2)----------------|
|-----4-----4-----|--------------------|
|---5---5-----5---|--------------------|
|-----------------|--------------------|


                       1.
  F#G5                             A5    B5
 ----------------------------------------|
|---------------------|----------------------||
|---------------------|---------------------o||
|---------------------|----------------------||
|---------------------|----------------------||
|-4----5-----5----5---|--5----5--5-7-7-7-9--o||
|-4-5--5-----5--5-5---|--5--5-5--5-7-7-7-9---||
|
|-5---(5)-0-(0)---0h2-|-(2)------------------||
|---------------------|---------------------o||
|---------------------|----------------------||
|---------------------|----------------------||
|---------------------|---------------------o||
|---------------------|----------------------||


  2.
  G5            A5  D5      G5
  PM--------------------|
|-------------------------|---------------------|---------------------||
|-------------------------|---------------------|---------------------||
|-------------------------|---------------------|---------------------||
|-------------------------|---------------------|---------------------||
|-5----5-----5--7-7--7--9-|---------------------|---------------------||
|-5-5--5-----5--7-7--7--9-|---------------------|---------------------||
|
| Gtr IV
|-5---(5)-0-(0)------0h=2-|-5---(5)-0-(0)---0h2-|-5---(5)-0-(0)---0h2-||
|-------------------------|---------------------|---------------------||
|-------------------------|---------------------|---------------------||
|-------------------------|---------------------|---------------------||
|-------------------------|---------------------|---------------------||
|-------------------------|---------------------|---------------------||
|
| Gtr II
|                           PM----------------------------|
|-------------------------|---------------------|---------------------||
|-------------------------|---------------------|---------------------||
|-------------------------|---------------------|---------------------||
|-------------------12\---|---------------------|------------5--7-9-7-||
|-------------------12\---|-5-5--5--5--5--5-5-5-|-5-5--5--5--5--7-9-7-||
|-------------------12\---|-5-5--5--5--5--5-5-5-|-5-5--5--5--5--7-9-7-||


   Chorus
    D5               Dmaj7             A5B5          G               Gsus2
    Gtr II
    PM|
||-----------------|-----------------|-----------------|-------------------|
||o----------------|-----------------|-----------------|-------------------|
||-----------------|-----------------|-----------------|-------------------|
||------0--0-0-0-0-|-----------------|------9--9-9-9-9-|-(9)-9-9-9-9-7-7-7-|
||o-----0--0-0-0-0-|-4-4-4-4-4S5-5-5-|-7-/9-9--9-9-9-5-|-(5)-5-5-5-5-5-5-5-|
||--0-0-0--0-0-0-0-|-0-0-0-0-0-0-0-0-|-7-/9-9--9-9-9-5-|-(5)-5-5-5-5-5-5-5-|


                                    1.
  D5               Dmaj7             B5   D  F#m G5              A5B5A5
  PM|
|----------------|-----------------|---------------|---------------------||
|----------------|-----------------|---------------|--------------------o||
|----------------|-----------------|---------------|---------------------||
|-----0--0-0-0-0-|-----------------|-4-4--4--7\--5-|-(5)-5-5-5-----------||
|-----0--0-0-0-0-|-4-4-4-4-4S5-5-5-|-2-2--5--9\--5-|-(5)-5-5-5-5-7-9-7--o||
|-0-0-0--0-0-0-0-|-0-0-0-0-0-0-0-0-|-------------5-|-(5)-5-5-5-5-7-9-7---||


  2.
  B5    D  F#m G5               B5    D  F#m G5
|----------------|------------|----------------|--------|
|----------------|------------|----------------|--------|
|----------------|------------|----------------|--------|
|-4-4-x-4--7\--5-|-(5)--------|-4-4-x-4--7\--5-|-(5)----|
|-2-2-x-5--9\--5-|-(5)--------|-2-2-x-5--9\--5-|-(5)----|
|--------------5-|-(5)--------|--------------5-|-(5)----|


|------------|------------|------------|--------*|
|------------|------------|------------|--------*|
|------------|------------|------------|--------*|
|-(5)--------|-(5)--------|-(5)--------|-(5)----*|
|-(5)--------|-(5)--------|-(5)--------|-(5)----*|
|-(5)--------|-(5)--------|-(5)--------|-(5)----*|


Tablature Legend
----------------
 h   - hammer-on
 p   - pull-off
 b   - bend
 pb  - pre-bend
 r   - bend release (if no number after the r, then release immediately)
 /\  - slide into or out of (from/to "nowhere")
 s   - legato slide
 S   - shift slide
  - natural harmonic
[n]  - artificial harmonic
n(n) - tapped harmonic
 ~   - vibrato
 tr  - trill
 T   - tap
 TP  - trem. picking
 PM  - palm muting
\n/  - tremolo bar dip; n = amount to dip
 \n  - tremolo bar down
 n/  - tremolo bar up
/n\  - tremolo bar inverted dip
 =   - hold bend; also acts as connecting device for hammers/pulls
 <>  - volume swell (louder/softer)
 x   - on rhythm slash represents muted slash
 o   - on rhythm slash represents single note slash

Misc Legend
-----------
 |  - bar
||  - double bar
||o - repeat start
o|| - repeat end
*|  - double bar (ending)
 :  - bar (freetime)
 $  - Segno
 &  - Coda
Tempo markers -  = BPM(8/16=s8/s16), where s8 = swing 8ths, s16 = swing 16ths
            
Submit corrections

comments powered by Disqus
↑ Back to top | You Me And Everyone We Know Tabs for Carolina Heat. Lyrics for acoustic guitar and electric guitar. 1 Tablatures and chords are parodies/interpretations of the original songs. You may use it for private study, scholarship, research or language learning purposes only