>
 >
Top Of The Morn' & Slip Of The Day

Top Of The Morn' & Slip Of The Day Guitar Tabs

You Am I - Top Of The Morn' & Slip Of The Day chords, tabs, tablatures, lyrics

Guitar lessons | Add/correct | Request | Top 50 tabs Artists:  A B C D E F G H I J K L M N O P Q R S T U V W X Y Z 0-9

Top Of The Morn' & Slip Of The Day Guitar Tabs – You Am I

CD, Sheet music, Poster

Do you like Top Of The Morn' & Slip Of The Day? Share with your friends now
Tabs
TOP OF THE MORN, SLIP OF THE DAY


tuned EADGAD

Chords used:

Gsus2  320000
Asus2  x02000
F#m    2443xx
E      0221xx
Em7    022000
C      x355xx
B      x244xx
D      x577xx or xx0200

INTRO
d|-----0-----
a|---0---6-0-
G|-0---------
D|-----------
A|-----------
E|-----------

d|-0-0-0-0-0-0-0-0-0-0-0-0-0-0-0-0-
a|-0-0-0-0-0-0-0-0-0-0-0-0-0-0-0-0-
G|-2-2-2-2-0-0-0-0-0-0-0-0-0-0-0-0-
D|-0-0-0-0-0-0-0-0-2-2-2-2-2-2-2-2-
A|---------2-2-2-2-2-2-2-2-0-0-0-0-
E|---------3-3-3-3-0-0-0-0---------

(x2)

---------0-0-0-0---------0-0-0-0-0-0-0-0-0-
---------0-0-0-0---------0-0-0-0-0-0-0-0-0-
5--5-5-4-2-2-2-2-5-5-5-7-2-2-2-2-2-2-2-2-2-
5--5-5-4-2-2-2-2-5-5-5-7-2-2-2-2-0-0-0-0-0-
3--3-3-2-0-0-0-0-3-3-3-5-0-0-0-0-----------
-------------------------------------------
 
(INTRO)

VERSE 1

Gsus2                       Asus2
       I shuffle 'round the Earth like a ping pong.
Gsus2                            Asus2
       To find something just to hang my hat on
Gsus2                        Asus2            F#m   E
       And somewhere just to let my pants get dry.
Gsus2                       Asus2         
       Heard a trucker on a pay phone gas mall
Gsus2                           Asus2               
       sort his deal out with a twenty five cent call
Gsus2                              Asus2                   F#m   E
       Shooting through before his see-through coffee went cold

CHORUS

Em                 A
   And it sure did seem a good deal to me
Em                   A
   But my head's too soaked in Brilliantine
Em         A                     D   (INTRO)
   So just take me out, alright!

VERSE

Gsus2                   Asus2
      I've brushed over stations and channels
Gsus2                        Asus2
      and combed the town in corduroy and flannel
Gsus2             Asus2                                      F#m
Only know who you are when you move and who you're with when you're alone.
E
That's all I know

CHORUS

Em                      A
    And it sure did seem a good deal to me,
Em                    A
    But my head's too soaked in Brilliantine
Em          A                     D
    So just take me out, alright!
Em                     A
    And top of the morn  and slip of the day
Em                   A       
    Just don't sleep good since I been away.
Em            A            D
    So here's to you, alright!

D                                           G
     I think I've figured out a way to get by
                C                    B Asus2
I'll leave your brain out sitting on a shelf.
D                                                      G
     I think I figured out a cracking good way to get by
           C         B   Asus2          D
So kick me out, I'm going west, bye bye

SOLO

Em A

d|-----------------
a|-----------------
G|-----------------
D|---------9-7---7-
A|---9-8-7-----9---
E|-0---------------

(x3)

                                                                    
D G Em A D G Em A

d|--------12-------14-12-------12-------12-------14-12-------16-
a|-----------------------12-14-------------------------12-14----
G|-----11-------11-------------------11-------11----------------
D|-/12-------12-------------------12-------12-------------------
A|--------------------------------------------------------------
E|--------------------------------------------------------------

repeat the chorus and solo

CODA

C           B       Asus2
Walk stupid like an expectant dad
C                          D   Asus2
waiting for your hand like I'm waiting for skylab
C               B         Asus2             D
So kick me out, I'm going west, alright





Comments


Popular You Am I tabs & chords
Berlin Chair Bass Tabs
Judge Roy Chords
Damage Tabs
Friends Like You Tabs
Mr. Milk Tabs
Mr. Milk 1 Tabs
Plans Tabs
Soldiers Tabs
Thuggery Tabs
Who Takes Who Home Tabs


Song lyrics



↑ Back to top | Tablatures and chords are parodies/interpretations of the original songs. You may use it for private study, scholarship, research or language learning purposes only
© 2014 AZChords.com Contact us | Privacy policy | DMCA | Add/correct tabs | Request tabs | Top 50 tabs