» » »

Thuggery Tabs (ver.1)

Artists:  A B C D E F G H I J K L M N O P Q R S T U V W X Y Z # 

Thuggery Tabs (ver.1)

You Am I
Rating:
0/5 (0 votes)

Hard to play? Try these video lessons and learn fast.
                Hi, my name is Jake English and this is only my second tab
and it has all been done by ear so please bear with me if 
its not perfect. This tab is my intellectual property so 
please do not copy and paste it for your own beneficial 
purposes other than to learn the song. Other than all that,
I hope you enjoy the Tab.

 Tuning: Standard 

 Capo: 1st Fret (Tab relative to Capo)

Intro / Verse:

e|-------------------------------------|
g|-------------------------------------|
b|-------------------------------------|  x4
d|-7---5----9---7----------------7-----|
a|-0-0---7--0-0---7--5-5-5-3-0-0---0-0-|
e|-------------------------------------|

Bridge:
   E                    D                      B   
e|-------------------------------------------------------------------|
g|-----9-----9---7---------------------------------4-----4---2---2h4-|
b|-------------------9------7----------------------------------------|
d|---9---9----------------7---7---7---6---6h7----4---4---------------|
a|-7-------7---7---7----5-------5---5---5------2-------2---2---2-----|
e|-------------------------------------------------------------------|
   D                      F#                 D   
e|-------------------------------------------------------------|
g|-------------------------------------------------------------|
b|-----7----------------------3-----3------------7-----7-----7-|
d|---7---7---7---6---6h7-----------------------7---7-----7-----|
a|-5-------5---5---5--------4---4-----4---4--5-------5-----5---|
e|------------------------2-------2-----2----------------------|

Build Up to Verse Two:

e|-------------------------------------|
g|-------------------------------------|
b|-------------------------------------|  x2
d|-7---5----9---7----------------7-----|
a|-0-0---7--0-0---7--5-5-5-3-0-0---0-0-|
e|-------------------------------------|

Verse:
   A                   D     C  A
e|-----------------------------------------|     |-------|
g|-----------------------------------------|     |-------|
b|---------------------7-7-7-5-------------| x2  |-------|
d|-7-7--x-7--x-7--x-7--7-7-7-5--7-7--x-x-7-|     |-5-4-3-|
a|-7-7--x-7--x-7--x-7--5-5-5-3--7-7--x-x-7-|     |-5-4-3-|
e|-5-5--x-5--x-5--x-5-----------5-5--x-x-5-|     |-3-2-1-|

Bridge:

e|-------------------------------------------------------|
g|-------------------------------------------------------|
b|-9-9--9-9--9-9--9-8--7-7--7-7--7-7--7-6--4-4--4-4--4-4-|
d|-9-9--9-9--9-9--9-8--7-7--7-7--7-7--7-6--4-4--4-4--4-4-|
a|-7-7--7-7--7-7--7-6--5-5--5-5--5-5--5-4--2-2--2-2--2-2-|
e|-------------------------------------------------------|

e|-----------------------|
g|-----------------------|
b|-4-6--7-7--7-7--7-7--7-|
d|-4-6--7-7--7-7--7-7--7-|
a|-2-4--5-5--5-5--5-5--5-|
e|-----------------------|

e|------------------------------------------|
g|------------------------------------------|   *Kick in a bit of
b|------------------------------------------|    distortion here =)
d|-----2-------2-2----------3-3-------3-3---|
a|---4---4---4-----4------5-----5---5-----5-|
e|-2-------2---------2--3---------3---------|

e|---------|
g|---------|
b|---------| x8
d|---------|
a|-0-3-5-3-|
e|---------|

Verse:
   A                   D     C  A
e|-----------------------------------------|     |-------|
g|-----------------------------------------|     |-------|
b|---------------------7-7-7-5-------------| x2  |-------|
d|-7-7--x-7--x-7--x-7--7-7-7-5--7-7--x-x-7-|     |-5-4-3-|
a|-7-7--x-7--x-7--x-7--5-5-5-3--7-7--x-x-7-|     |-5-4-3-|
e|-5-5--x-5--x-5--x-5-----------5-5--x-x-5-|     |-3-2-1-|

Bridge:

e|-------------------------------------------------------|
g|-------------------------------------------------------|
b|-9-9--9-9--9-9--9-8--7-7--7-7--7-7--7-6--4-4--4-4--4-4-|
d|-9-9--9-9--9-9--9-8--7-7--7-7--7-7--7-6--4-4--4-4--4-4-|
a|-7-7--7-7--7-7--7-6--5-5--5-5--5-5--5-4--2-2--2-2--2-2-|
e|-------------------------------------------------------|

e|-----------------------|
g|-----------------------|
b|-4-6--7-7--7-7--7-7--7-|
d|-4-6--7-7--7-7--7-7--7-|
a|-2-4--5-5--5-5--5-5--5-|
e|-----------------------|

e|------------------------------------------|
g|------------------------------------------|   *Kick in a bit of
b|------------------------------------------|    distortion here =)
d|-----2-------2-2----------3-3-------3-3---|
a|---4---4---4-----4------5-----5---5-----5-|
e|-2-------2---------2--3---------3---------|

Chorus:

This second last part of the song is sort of hard to explain but ill try
anyway. The chorus is mainly just Davey Lane Soloing through which I will
attempt to tab below but if you listen carefully you will here Tim Rogers
just hitting the A power chord everytime the chorus comes around and he
lets it ring. So you can play it one of to ways, Bashing out the A
powerchord or Davey Lanes solo, or both if you have another guitarist with
you? Up to You...

   A
e|---|
g|---|
b|---| x8
d|-7-|
a|-7-|
e|-5-|

Solo:

e|-5-----7-5--------------5-----7-5------------------------|
g|---8-5-----5--------------8-5-----5-------------8--------|
b|-------------7-7-7-5----------------7-7-7-5-7b9---r7p5---|
d|---------------------7---------------------------------7-|
a|---------------------------------------------------------|
e|---------------------------------------------------------|

e|-5-----7-5--------------5-----7-5----------------------------|
g|---8-5-----5--------------8-5-----5-------------8--------5-8-|
b|-------------7-7-7-5----------------7-7-7-5-7b9---r7-5-7-----|
d|---------------------7---------------------------------------|
a|-------------------------------------------------------------|
e|-------------------------------------------------------------|


e|-5-5-5------8-5p3-5p3-5--8-5p3-5p3-5--10b12-10b12r10----|
g|-------8-5------------------------------------------10--|
b|--------------------------------------------------------|
d|--------------------------------------------------------|
a|--------------------------------------------------------|
e|--------------------------------------------------------|

e|-5-5-5------8-5p3-5p3-5--8--5-------------------|
g|-------8-5---------------------8--5-------------|
b|-------------------------------------8--7--5----|
d|----------------------------------------------7-|
a|------------------------------------------------|
e|------------------------------------------------|

e|-5-----7-5--------------5-----7-5---------------------------------------|
g|---8-5-----5--------------8-5-----5-------------8-----8-----8-----8-----|
b|-------------7-7-7-5----------------7-7-7-5-7b9---7b9---7b9---7b9---7b9-|
d|---------------------7--------------------------------------------------|
a|------------------------------------------------------------------------|
e|------------------------------------------------------------------------|

Last verse:

e|--------------------------------------------------------------------|
g|--------------------------------------------------------------------|
b|--------------------------------------------------------------------|
d|-7---5----9---7----------------7-------7---5----9---7---------------|
a|-0-0---7--0-0---7--5-5-5-3-0-0---0-0---0-0---7--0-0---7--5-5-5-3-0--|
e|--------------------------------------------------------------------|

e|--------|
g|--------|
b|--------|
d|-5-5--7-|
a|-5-5--7-|
e|-3-3--5-|

Lyrics:

At night in the minefield, tuggin' my uniform 
Loose chaps and keeping tabs where I’m lying on 
Where you suppose the interest came 
In whose to receive here and whose to blame 
Huh? I don’t get it ... C'mon

Shotgun ... those shells and get those slippery suckers down 
ASIO and the carrion crow could sure use you around 
With your microphone hidden in my drawers 
Why don't you just beat me off with those claws 
Hit it 

I trust you just as far as low fat groceries 
Wouldn't you like to know whose tugging at my jeans 
I'll stick this friggin' neck right down your cake-hole 
Just as soon as let you mess with the love I know 

It's thuggery 
It's thuggery 
It's thuggery 

It's your time to shout get over it 
Let the blood rush to my head 
Come on little man 
What don't you get
            
Hard to play? Try these video lessons and learn fast. | Correct




comments powered by Disqus
↑ Back to top | Tablatures and chords are parodies/interpretations of the original songs. You may use it for private study, scholarship, research or language learning purposes only