>
 >
The Cream & The Crock

The Cream & The Crock Guitar Tabs

You Am I - The Cream & The Crock chords, tabs, tablatures, lyrics

Guitar lessons | Add/correct | Request | Top 50 tabs Artists:  A B C D E F G H I J K L M N O P Q R S T U V W X Y Z 0-9

The Cream & The Crock Guitar Tabs – You Am I

CD, Sheet music, Poster

Do you like The Cream & The Crock? Share with your friends now
Tabs
THE CREAM AND THE CROCK 


Dropped G tuning: (E, G, D, G, B, E)

Chords used:
(PRECHORUS)

C  C(b5th)  C(II)  Cm  
---------------------
5----7--------8----4-
0----0--------0----0-
0----0--------0----0-
5----5--------5----5-
---------------------

(CHORUS)

G  G/F#  Em  D  C  G/B  G/Bb  Am7
---------------------------------
12--10---8---7--5---3----2-----1-
0---0----0---0--0---0----0-----0-
0---0----X---0--0---0----0-----0-
12--11---9---7--5---4----3-----2-
---------------------------------

(Rusty lets it rock)
G  Em  F 
--------
---0---0
0--0---0
0--0---0
0--X---X
---0---1

VERSE RIFF

1      2     3     4     1     2      3      4
------------------------------------
-------------------------0----------
0----0-------------------0----------
0----0------------2------4----------
0----0-----2-3-4---------4----------
-------------------------0----------

PRECHORUS CHORDS

C  /  C(b5th)  /  C(II)  /  Cm

PRECHORUS GUITAR LINE 

    BU      BD

---------10-----------------
-10-(12)----(12)-10---8---8-
------------------------9---
----------------------------
----------------------------
----------------------------

(x4)

VERSE 1
       VERSE RIFF                       VERSE RIFF
Took a drag from something I don't even smoke.
      VERSE RIFF                              VERSE RIFF
And a line from something that some other guy wrote.
         VERSE RIFF                                           VERSE RIFF
Now it's red wine for headline, somebody's pulling favours by phone.
      VERSE RIFF                                   PRECHORUS
Is it really so bad or you just want some place to go?

VERSE 2
        VERSE RIFF                                VERSE RIFF
Give me noise and the sound of hearts breaking in songs.
          VERSE RIFF                                            VERSE RIFF
Give them profiles and a voice which shows which country you're from.
VERSE RIFF                     VERSE RIFF
Meanwhile, I was there thinking
   VERSE RIFF                                    PRECHORUS
Is it really that bad or did you just want me to go?

CHORUS
G               G/F#                        Em
Hey, before you leave us by the side of the road
          D                           C
I want to tell you 'bout the little I know
         G/B           G/Bb  Am7
It's the cream, it's a crock

VERSE 3
        VERSE RIFF                            VERSE RIFF
Pick it up and spill your guts to someone who knows
              VERSE RIFF                                             VERSE RIFF
I'll suck you up like a kleenex and leave the mess in the back of my throat
VERSE RIFF                      VERSE RIFF
Meanwhile, I was there thinking
      VERSE RIFF                                     PRECHORUS
Is it really that bad or did you just want me to go?

CHORUS
G               G/F#                        Em
Hey, before you leave us by the side of the road,
          D                           C
I want to tell you 'bout the little I know
         G/B           G/Bb   
It's the cream, it's a crock
         Am7
Oh Rusty, let it rock!

BRIDGE

G Em / F G (x3)

Then;

-------------------------
-5--5--5--5--5--5--------
-0--0--0--0--0--0--------
-0--0--0--0--0--0--------
-5--5--5--5--5--5--4-2-1-
-------------------------

(x1)

3-3-------0-
3-3-------0-
0-0-------0-
0-0-------4-
0-0-------4-
3-3-------0-

(x4)

PRECHORUS

CHORUS
G               G/F#                        Em 
Hey, before you leave us by the side of the road
          D                          C
I want to tell you bout the little I know
         G/B           G/Bb   Am
It's the cream, it's a crock, yeah
G          G/F#                         Em
Hey, we're sitting in the middle of the road
          Dsus4                       Csus2
I want to tell you 'bout the little I know
         G/B           Gm/Bb
It's the cream, it's a crock
Am        
Oh let it rock!

----------------------
----------------------
0--0-----------0------
0--0-----------0------
0--0--2--4-2-1-0------
----------------------





Comments


Popular You Am I tabs & chords
Gone Gone Gone Chords
Jaimme's Got A Gal Chords
Mr. Milk Chords
Who Takes Who Home Chords
Heavy Comfort Tabs
How Much Is Enough? Tabs
Jaimme's Got A Gal Tabs
Junk Tabs
Plans Tabs
Mr Milk Ukulele


Song lyrics



↑ Back to top | Tablatures and chords are parodies/interpretations of the original songs. You may use it for private study, scholarship, research or language learning purposes only
© 2014 AZChords.com Contact us | Privacy policy | DMCA | Add/correct tabs | Request tabs | Top 50 tabs