» » »

You Am I, Soldiers Tabs (ver.1)

Artists:  A B C D E F G H I J K L M N O P Q R S T U V W X Y Z # 

Soldiers Tabs (ver.1)

You Am I Tabs
 Rating:
4/5 (4 votes)
Soldiers lessons Tabs too difficult? Try these video lessons and learn fast
1
                SOLDIERS


capo 4th fret.

Intro/("you woke me up..." bit)

     A    A/G#   D     E
E|-----0-----0--(2)--------
B|-----2-----2---3-------0-
G|---2-----2-------2-----1-
D|-2-----------0-------2---
A|-0-----------------2-----
E|-------4-----------------

Verse

E|-0-0-0-0-2-2-0-0-
B|-2-2-2-2-3-3-0-0-
G|-2-2-2-2-2-2-1-1-
D|-2-2-2-2-0-0-2-2-
A|-0-0-0-0-----2-2-
E|-----4-4-----0-0-

pre-chorus chords (the senior transit...)

E|-0--0--0--2-
B|-2--2--2--2-
G|-2--2--2--3-
D|-2--2--2--4-
A|-0--0--0--4-
E|----4--3--2-

chorus chords (alright, right...)

E|-0--0-
B|-2--2-
G|-2--2- back into verse riff
D|-2--2- 
A|-0--0-
E|----3-

Bridge chords

E|-0--2--2--2/5--5-
B|-2--2--3--3/6--6-
G|-2--3--4--4/7--7-
D|-2--4--4--4/7--7-
A|-0--4--2--2/5--5-
E|----2------------

last bar

E|-0-0-0-0-2-2-1---0-
B|-2-2-2-2-3-3-0---2-
G|-2-2-2-2-2-2-2---2-
D|-2-2-2-2-0-0-0---2-
A|-0-0-0-0---------0-
E|-----4-4-----------
            
Submit corrections

comments powered by Disqus
↑ Back to top | You Am I Tabs for Soldiers. Lyrics for acoustic guitar and electric guitar. 1 Tablatures and chords are parodies/interpretations of the original songs. You may use it for private study, scholarship, research or language learning purposes only