» » »

Purple Sneakers Tabs (ver.1)

Artists:  A B C D E F G H I J K L M N O P Q R S T U V W X Y Z # 

Purple Sneakers Tabs (ver.1)

You Am I
Rating:
4/5 (1 vote)

Hard to play? Try these video lessons and learn fast.
                
This Tab is only a guide.

Loose strumming and varied string playing is what will make this sound natural.


Main Riff:  Bass note picked, remaining notes strummed up and down.

e|---2-2---2-2---2-2---22-0--2-2---2-2---2-2---22-0--2-2---2-2---2-2---22-0-----|
B|---3-3---3-3---3-3---33-0--2-2---2-2---2-2---22-0--2-2---2-2---2-2---22-0-----|
G|---2-2---2-2---2-2---22-0--2-2---2-2---2-2---22-0--2-2---2-2---2-2---22-0-----|
D|---0-----0-----0-----0-----0-----0-----0-----0------4-----4-----4-----4-------|
A|------------------------------------------------------------------------------|
E|-0-----0------0-----0-----0-----0-----0-----0------4-----4-----4-----4--------|


e|--0-0---0-0----0-0----00-0------|
B|--0-0---0-0----0-0----00-0------|
G|--2-2---2-2----2-2----22-0------|    (Back to start)
D|--3-----3------3------3---------|
A|--------------------------------|
E|-3-----3------3------3----------|


Pre-chorus:

e|--3-3---3-3---3-3--222---0-0---0-0---0-0---000-------|
B|--3-3---3-3---3-3--333---2-2---2-2---2-2---222-------|
G|--0-0---0-0---0-0--000---0-0---0-0---0-0---000-------|
D|--------------------------2-2---2-2---2-2---222------|
A|-------------------------0-----0-----0-----0---------|
E|-2-----2-----2-----2---------------------------------|


Chorus:

xx0232
x02220
x24432
22245x
(slide up to) 44467x
55578 / 55878x

Outro:

e|-2-2--2-0--0-000--2-2--2-2--2------|
B|-3-3--3-3--3-333--3-3--3-3--3------|
G|-2-2--2-1--1-011--0-0--0-2--2------|
D|-0-0----0--0------0-0----0--0------|
A|-----------------------------------|
E|-----------------------------------|
            
Hard to play? Try these video lessons and learn fast. | Correct




comments powered by Disqus
↑ Back to top | Tablatures and chords are parodies/interpretations of the original songs. You may use it for private study, scholarship, research or language learning purposes only